Guitar Tabs, Chords and Lyrics


Reflect on Conflict    Napalm Death



NAPALM DEATH-Reflect On Conflict
Inside The Torn Apart - 1997

riff 1
|---------------------------------------------------------------------------------------|
|---------------------------------------------------------------------------------------|
|---------------------------------------------------------------------------------------|
|---------6-------------8-------------6----8---------6-------------8-------------6----7-|
|-32------4------3------6------3------4----6-32------4------3------6------3-----4----5-|
|-10-0000---0000-1-0000---0000-1-0000---00---10-0000---0000-1-0000---0000-1-0000---00---|



riff 2
|---------------------|
|---------------------|
|---------------------|
|---------------------|
|-6---6---7-6---6---5-|
|--555-555---555-555--|




riff 3
|---------------|
|---------------|
|---------------|
|-8----9-8----7-|
|-6--7-7-6--7-5-|
|----5------5---|


riff 4
|---------------------------|
|---------------------------|
|---------------------------|
|---------------------------|
|-7-55-7-55-75-5-33-5-33-53-|
|-5-33-5-33-53-3-11-3-11-31-|

riff 5
|--------------|
|-----0------0-|
|-----4------4-|
|--------------|
|---5------3---|
|-3------1-----|

riff 6
|-------------------------------------|
|-------------------------------------|
|-7"-----4"---------------------------|
|-0"-----0"---------------------------|
|-5"-----2"-----322-322-32-322-322-32-|


Important: The song above is NOT stored on the Chordie server. The original song is hosted at www.xguitar.com. Chordie works as a search engine and provides on-the-fly formatting. Chordie does not index songs against artists'/composers' will. To remove this song please click here.

This song is displayed as text-only. Transposing and tuning is only available for chordpro-songs.

Login - add to songbook

Rating click stars to rate

Layout
Accuracy

SHARE PAGE  




You need to log in to post comments