Guitar Tabs, Chords and Lyrics


Cadaverous Screams Of My Deceased Lover    Necrophagia



Artist: Necrophagia
Song: Cadaverous Screams Of My Deceased Lover
Album: Holocausto De La Morte

Tuned to Eb

^=Bend up 1/2 step


Intro
-------------------------------------------------------------------
-------------------------------------------------------------------
-------------------------------------------------------------------
-----7~~~3~~~2~~~--------------------------------------------------
-5~~~------------4~~~3~~~2~~~----5~~~4~~~~^------------------------
-----------------------------4~~~3~~~2~~~~2~~~~--------------------
Repeat Several Times


Verse
--------------------------
--------------------------
--------------------------
--------------------------
---------^-^-^-^-7/10-----
-0-0-0-0-5-5-3-3-5/8------
Repeat Throughout Verse


Chorus
--------------------------------------------------------------------
--------------------------------------------------------------------
--------------------------------------------------------------------
--------------------------------------------------------------------
-2-----4-----3-----6-----5~2h3p2h3p2h3pp2h3p2h3p2-----2/9-----------
-0~~~~~2~~~~~1~~~~~4~~~~~3~-----------------------0-0---------------
Repeat Several Times

Then Play Intro

Then Play Verse

Then Play Chorus


Bridge                       Fill A.
---------------------------|-------------------------------------------
----P----P----P----P----P--|-------------------------------------------
----a----a----a----a----a--|-------------------------------------------
----u----u----u----u----u--|-------------------------------------------
----s----s----s----s----s--|------4------5------7----9999--------------
-00-e-00-e-00-e-00-e-00-e--|-0000-2-0000-3-0000-5-00-7777--------------
                             Repeat This Part A Couple Times

Fill B.
--------------------------------------------------------------------
--------------------------------------------------------------------
--------------------------------------------------------------------
-----------------------------5h6p5h6p5---3h4p3h4p3------------------
-----5-6-5-6-5-1-----5-6-5-6----------------------------------------
-0-3-------------0-3------------------------------------------------
Play Twice

Then Play Fill A. Twice

Then Play Fill B. 4 Times

Then Play The Verse



Important: The song above is NOT stored on the Chordie server. The original song is hosted at www.xguitar.com. Chordie works as a search engine and provides on-the-fly formatting. Chordie does not index songs against artists'/composers' will. To remove this song please click here.

This song is displayed as text-only. Transposing and tuning is only available for chordpro-songs.

Login - add to songbook

Rating click stars to rate

Layout
Accuracy

SHARE PAGE  




You need to log in to post comments