Chordie logo

Children Of The Vortex    Necrophagia



Artist: Necrophagia
Song: Children Of The Vortex
Album: Holocausto De La Morte

Tuned to Eb

Verse 1
-------------------------------------------------------------------------------------
-------------------------------------------------------------------------------------
-------------------------------------------------------------------------------------
-------------------------------------------------------------------------------------
--------2222--------3333--------4444--------5555------4444-5555----------------------
-0-2222------0-3333------0-4444------0-5555------4444-----------5555-4444-3333-2222--
Repeat Throughout Verse (you gotta shred this part, it's played incredibly fast)


Fill A.
---------------------------------------------------------
---------------------------------------------------------
---------------------------------------------------------
-----7-----9-----7-----9----8----------------------------
---7-5---9-7---7-5---9-7--8-6-9-8-7-6--------------------
-0-5---0-7---0-5---0-7----6---7-6-5-4--------------------
Play that twice

Then Play The Verse

Then Fill A. Twice Again
(the first time play it the way i put above,
the second time, play it this way.......)
---------------------------------------------------------
---------------------------------------------------------
---------------------------------------------------------
-----7-----9-----7-----9---8-----------------------------
---7-5---9-7---7-5---9-7-8-6-9-8-7-6-5-4-3-2-------------
-0-5---0-7---0-5---0-7---6---7-6-5-4-3-2-1-0-------------


Next Part
---------------------------------------------------------
-------------------3-------------------------------------
---------2h4p2h3p2-3-------------------------------------
---------------------------------------------------------
----------------------9-8-7-6-5-4-3-2--------------------
-0-0-0-0--------------7-6-5-4-3-2-1-0--------------------
Repeat that lots of times

End that part with this......
---------|------------------------------------------------
---------|------------------------------------------------
---------|-2h4p2h3-2h3p2h4-2h4p2h3-2h33p2h4---------------
---------|------------------------------------------------
---------|------------------------------------------------
-0-0-0-0-|------------------------------------------------
           Keep Repeating this part till the next riff starts


Next Riff
----------------------------------------------------------
----------------------------------------------------------
----------------------------------------------------------
----------------------------------------------------------
------2------3------2------3------------------------------
-0000---0000---0000---0000--------------------------------
Repeat that several times (shred the open Eb's)


Next Verse
---------------------------------|--------------------------
---------------------------------|--------------------------
---------------------------------|--------------------------
---------------------------------|-3/4-----3/4-5/6----------
---------------------------------|-1/2-5\4-1/2-3/4----------

-0-0-0-0-0-0-0-0-0-0-0-0-0-0-0-0-|-----3\2------------------
Repeat the whole thing for the verse,
but end it by repeating the riff on the
right side of the line 4 times

Then play Verse 1



Important: The song above is NOT stored on the Chordie server. The original song is hosted at www.xguitar.com. Chordie works as a search engine and provides on-the-fly formatting. Chordie does not index songs against artists/composers will. To remove this song please click here.

This song is displayed as text-only. Transposing and tuning is only available for chordpro-songs.

Login - add to songbook

Rating click stars to rate

Layout
Accuracy

SHARE PAGE  



You need to log in to post comments