Chordie logo

Cinnamon Girl  Neil Young

TUNING: Dropped-D (DADGBD)

INTRO: (and main riff)

RIFF1:
D---5--7--7--7-----7-----0------------------
B---5--7--7--7-----7-----1------------------
G---5--7--7--7-----7-----0--0--0------------
D---5--7--7--7-----7-----2--0--0---3---5----
A---0--0--0--0-----0-----3--2--0---3---5----
D---0--0--0--0-----0---------------3---5----

D---5--7--7--7-----7-----0------------------ B---5--7--7--7-----7-----1------------------ G---5--7--7--7-----7-----0--0--0------------ D---5--7--7--7-----7-----2--0--0---3-------- A---0--0--0--0-----0-----3--2--0---3-------- D---0--0--0--0-----0---------------3--------

repeat both lines once

VERSE:
     [D5]                    [Am11]                                            
I wanna live with a cinnamon girl
    [Cadd2]                    [G5] 
I could be happy the rest of my life with a

RIFF2:
D------------5--7---7--------------0---------------
B------------5--7---7----1---------1----------------
G------------5--7---7----0--0--0---0-------------------
D---3--5--0--5--7---7----2--0--2---2---------------------
A---3--5--0--0--0---0----3--2--3---0---------------------
D---3--5--0--0--0---0--------------------------------

cinnamon girl

A [D5]dreamer of pictures I [Am11]run in the night
you [Cadd2]see us together, c[G5]hasing the moonlight
RIFF2 my cinnamon girl

MIDDLE 8:
P[Cadd2]a send me [Am11]money [Cadd2]now I know I'll [Am11]make it somehow
[Cadd2]I need an[Am11]other [Gm7]chance
[Gm7]You see you're baby loves to [Am7]dance yeah, yeah, yeah ...

OUTRO:
D---5--7--5--7------------------------------------
B---5--7--5--7-------------------------------------
G---5--7--5--7------------------------------------
D---5--7--5--7-----------------------------------
A---0--0--0--0-----------------------------------
D---0--0--0--0-------------------------------------


Important: The song above is NOT stored on the Chordie server. The original song is hosted at www.xguitar.com. Chordie works as a search engine and provides on-the-fly formatting. Chordie does not index songs against artists/composers will. To remove this song please click here.

Am11 Am7 Cadd2 D5 G5 Gm7
variations - click chord images

Login - add to songbook

Transpose chords

Tuning

Rating click stars to rate

Layout
Accuracy

SHARE PAGE  



You need to log in to post comments

All1Song (report video to admin):
An acoustic collaboration on Cinnamon Girl between 3 friends.
ERROR: If you can see this, then YouTube is down or you don't have Flash installed.
All1Song (report video to admin):
Updated Video with Remastered Audio
ERROR: If you can see this, then YouTube is down or you don't have Flash installed.

tspedersen (report)

You sound great but not really a Video "Tutorial". I was hoping to learn something about how to play it.

SouthPaw41L (report)

2:07 needs to be toned way down. Everything else sounds real nice.