eToCache5 = ""; ?> Heart Of Gold by Neil Young - guitar chords, guitar tabs and lyrics - chordie

Heart Of Gold

Neil Young

e --------0---0---0---0---0---0-|-2-------2---0-----------------|

B --------0---0---0---0---0---0-|-3-------3---0-----------------|

G --------0---0---0---0---0---0-|-2-------2---0-----------------|

D --------2---2---2---2---2---2-|-0-------0---2-----------0--2--|

A --------2---2---2---2---2---2-|-------------2-------0-2-------|

E 0-0-----0---0---0---0---0---0-|-------------0-----------------|


 EmCDG
 I want to live, I want to give
 EmCDG
 I've been a miner for a heart of gold
 EmCDG
 It's these expressions I never give
 EmG
 That keep me searching for a heart of gold
 CG
                   (RIFF)  
And I'm getting old
 EmG
 Keep me searching for a heart of gold
 CG
                   (RIFF)  
And I'm getting old
RIFF:
-----------3------------------

-----------0------------------
-----------0------------------
-----------0------------------
--3--2--0--2------------------
-----------3------------------
ALONG WITH 2nd HARMONICA RIFF:
Em C D G (x3)
INTRO RIFF (x1)
 EmCDG
 I've been to Hollywood, I've been to Redwood
 EmCDG
 I've crossed the ocean for a heart of gold
 EmCDG
 I've been in my mind, it's such a fine line
 EmG
 That keeps me searching for a heart of gold
 CG
                   (RIFF) 
And I'm getting old
 EmG
 That keeps me searching for a heart of gold
 CG
                   (RIFF) 
And I'm getting old
ALONG WITH FINAL HARMONICA RIFF:
Em C D G (x3)
 EmDEm
 Keep me searching for a heart of gold
 EmDEm
You keep me searching and I'm getting old
 EmDEm
 Keep me searching for a heart of gold
 EmG
 I've been a miner for a heart of gold
 CG
     (RIFF)  

Corrected by Bernie Bradshaw. View original
C D Em G
variations - click chord images
Transpose chords:
Tuning:
Cool service:
View: Size:
A  A  A
Rating:
Layout:
  • Currently 2.9/5 Stars.
  • 1
  • 2
  • 3
  • 4
  • 5
 
Accuracy:
  • Currently 3.3/5 Stars.
  • 1
  • 2
  • 3
  • 4
  • 5
 
click stars to rate
Chordie recommends:
Learn to play guitar with video-based, online guitar lessons at JamPlay.com
Songbook:
Login to add this song to your songbook
Support the artist
Preview/buy this song
MSN Music
Why this non-profit ad?

 
login to add comments/video/corrections

RealVilla (report comment to admin):
http://www.xguitar.com/guitar-tabs/neil_young/harvest/heart_of_gold.txt

there's more to the song than just the chords.

99.246.52.202
Mattman4698 (report comment to admin):
I think you've got the main riff wrong.


Trying using an Em7 in there. I'd do the tab for you but I'm lazy. :^)
VirtualSteve (report comment to admin):
This song should be listed under Neil Young and not Neil Diamond as it is at the moment.