Chordie logo
content loaded from cache

The Old Laughing Lady  Neil Young

[D]   [D1]    [D]   [D1]    [D]   [D1]    [D]               [D]Don't call pretty Peggy, [D2] she can't hear you no [D4]more.   [D2]
[D]Don't leave no message [D2]'round her [D4]back door. [D5]
They say the o[G]ld laughin' lady been here be[D]fore. [D2]
[D4]She don't keep time, [D3]she don't count [G]score.
[D]You can't have a cupboard [D2] if there ain't no[D4] wall.[D2]
[D]You got to move, [D2] there's no time left to [D4]stall.  [D5]
They say the o[G]ld laughin' lady dropped by to c[D]all.  [D2]
D4 D3 G RIFF
When she leaves, she leaves nothing at all.
[D]See the drunkyard of the village [D2] falling on the s[D4]treet.[D2]
[D]Can't tell his ankles f[D2]rom the rest of his f[D4]eet.  [D5]
He loves his o[G]ld laughin' lady 'cause her taste is so sw[D]eet.  [D2]
But the l[D4]aughin' lady's lovin',  a[D3]in't the kind he can k[G]eep.
[D]There's a fever on the freeway, [D2] blacks out the n[D4]ight. [D2]
There's a s[D]lippin' on the stairway,[D2]  just don't feel r[D4]ight. [D5]
And there's a [G]rumblin' in the bedroom and a flashin' of li[D]ght. [D2]
There's the o[D4]ld laughing lady, [D3] everything is all r[G]ight. [F]
CHORDS:
D|---0----0----0----0----0----0----0----0----|
B|---3----3----5----6----7----8----3----1----|
G|---2----0----4----5----6----7----0----0----|
D|---0----0----0----0----0----0----0----0----|
A|---0----2----0----0----0----0----5----3----|
D|---0-----------------------------5----3----|               

     [D]     [D1]    [D2]      [D3]     [D4]    [D5]      [G] [F]RIFF:
D|---0----0----0----5--7----0----0-------------------0------
B|---3----3----3----5--7----1----3-------------------3------
G|---2----0----2----5--7----0----0-------------------2------
D|---0----0----0----0--0----2----0----3----5---------0------
A|---0----2----0------------3----2----3----5---------0------
D|---0---------0----------------------3----5----0----0------ 


Important: The song above is NOT stored on the Chordie server. The original song is hosted at www.xguitar.com. Chordie works as a search engine and provides on-the-fly formatting. Chordie does not index songs against artists/composers will. To remove this song please click here.

D D2 D3 D4 D5 F G
variations - click chord images

Transpose chords

Tuning

Rating click stars to rate

Layout
Accuracy

SHARE PAGE  

You need to log in to post comments