""; ?> My My, Hey Hey (Out of the Blue) by Neil Young - guitar chords, guitar tabs and lyrics - chordie

My My, Hey Hey (Out of the Blue)

Neil Young

D ---0----3----0-------0----0----0----0----1--                  

A ---1----0----1-------1----0----3----1----1--
F ---0----0----2-------0----0----0----2----2--
C ---2----0----3-------2----2----2----2----3--
G ---0----2----0-------3----2----2----0----3--
D --------3------------3----0----0---------1--
 Am7GFmaj7/ACEmEm7AmF
INTRO:
D ---0----------------3----------------0-------
A ---1----------------0----------------1-------
F ---0----------------0----------------2-------
C ---2-------------0--0----------------3-------
G ---0----0--2--3-----2----2--0-----0--0-------
D --------------------3----------3-------------                 

 Am7GFmaj7/A
D ---0----------------3-------------------0-------
A ---1----------------0-------------------1-------
F ---0----------------0-------------------2-------
C ---2-------------0--0----2--0-----0-----3-------
G ---0----0--2--3-----2----------3-----0--0-------
D --------------------3---------------------------              

 Am7GFmaj7/A
=====================================================do these two riffs twice!

 Am7GFmaj7/A
 My  My, hey hey
 Am7GFmaj7/A
 Rock and roll is here to stay
 CEmEm7
 It\'s better to burn out  
 AmF
 Than to fade away
 Am7GFmaj7/A
 My  My, hey hey
D ---0----------------3----------------0-------
A ---1----------------0----------------1-------
F ---0----------------0----------------2-------
C ---2-------------0--0----------------3-------
G ---0----0--2--3-----2----2--0-----0--0-------
D --------------------3----------3-------------                 

 Am7GFmaj7/A

 Am7GFmaj7/A
 It\'s out of the blue and into the black
 Am7GFmaj7/A
 They give you this but you pay for that
 CEmEm7AmF
 And once you\'re gone you can never come back
 Am7G
 When you\'re out of the blue
 Fmaj7/A
And into the black
D ---0----------------3----------------0-------
A ---1----------------0----------------1-------
F ---0----------------0----------------2-------
C ---2-------------0--0----------------3-------
G ---0----0--2--3-----2----2--0-----0--0-------
D --------------------3----------3-------------                 

 Am7GFmaj7/A
D ---0----------------3-------------------0-------
A ---1----------------0-------------------1-------
F ---0----------------0-------------------2-------
C ---2-------------0--0----2--0-----0-----3-------
G ---0----0--2--3-----2----------3-----0--0-------
D --------------------3---------------------------              

 Am7GFmaj7/A
harmonica solo 1:

 B5B5
Am7 G Fmaj7/A ****see note on bottom if you cant get the strums right.

D ---0----------------3----------------0-------
A ---1----------------0----------------1-------
F ---0----------------0----------------2-------
C ---2-------------0--0----------------3-------
G ---0----0--2--3-----2----2--0-----0--0-------
D --------------------3----------3-------------                 

 Am7GFmaj7/A

 Am7GFmaj7/A
 The king is gone but he\'s not forgotten
 Am7GFmaj7/A
 This is the story of a Johnny Rotten
 CEmEm7AmF
 It\'s better to burn out than it is to rust
 Am7GFmaj7/A
 The king is gone but he\'s not forgotten
D ---0----------------3----------------0-------
A ---1----------------0----------------1-------
F ---0----------------0----------------2-------
C ---2-------------0--0----------------3-------
G ---0----0--2--3-----2----2--0-----0--0-------
D --------------------3----------3-------------                 

 Am7GFmaj7/A

 Am7GFmaj7/A
 Hey Hey, my my
 Am7GFmaj7/A
 Rock and roll can never die
 CEmEm7
 There\'s more to the picture 
 AmF
 Than meets the eye
 Am7GFmaj7/A
 Hey Hey, my my

harmonica solo 2:

slide into B7 (B5 B6 B7)-B6 D6 B6 B5 B6 D6 B5 (B5 B6
B7)-B6 D6 D6 B6 B5 B5 slide into B7 B6 D6 B6 B5 D5
 B5D4B5D5B5B4

Am7 G Fmaj7/A ---do this progression twice then

C Em Am F **on bottom how many strums

then fade out with this:

 Am7GFmaj7/A
 Hey Hey, my my

**notes on harmonica solo**

For every chord EXCEPT Famj7/A and F strum roughly four times which is once per beat. When you see Fmaj7/A or F act as if it is really written twice. Meaning you strum the F\'s twice as much as the other chords. If you still dont get it email me at briant_203@hotmail.com and ill be happy to help.

Harp solo key:

B= blow
D= Draw
-= slide into or out of note
numbers in () such as (B5 B6 B7)= their chords meaning blow all at the same time.

Well thats it have fun wit it.


Am Am7 B4 B5 C D4 D5 Em Em7 F Fmaj7/A G
variations - click chord images
Transpose chords:
Tuning:
Cool service:
View: Size:
A  A  A
Rating:
Layout:
  • Currently 3.6/5 Stars.
  • 1
  • 2
  • 3
  • 4
  • 5
 
Accuracy:
  • Currently 3.3/5 Stars.
  • 1
  • 2
  • 3
  • 4
  • 5
 
click stars to rate
Chordie recommends:
Learn how to play guitar at JamPlay.com
Songbook:
Login to add this song to your songbook
Support the artist
Preview/buy this song
MSN Music
Why this non-profit ad?

 
login to add comments/video/corrections