Guitar Tabs, Chords and Lyrics
Major upgrade!! After one year development the new version of Chordie is now online! Please give feedback.


New Mama   Neil Young

 
 E| |--------------|---------------|-------0------|0-0------------|
 B| |---3-3------3-|----3------3-3-|-------1------|1-1------------|
 G|4|---2-2------2-|----2------2-2-|-------0------|---------------|
 D|-|0-------------|0---3--0-------|0h3-----------|----2-0-----0--|
 A|4|-------0h3----|---------------|-----------3--|--------3------|
 D| |--------------|---------------|--------------|---------------|

 


 | | x x | x | x |x |


 


 [D] [C]  

 
 E|----------------|----------------|------0-0-0-----|
 B|------3-------3-|----3-------3-3-|------1-1-1-----|
 G|------2-------2-|----2-------2-2-|--------0---0---|
 D|----0-----------|0---3---0-------|0h3-------------|
 A|--------0h3-----|----------------|----------------|
 D|0---------------|----------------|----------------|

 


 | x x | x | x |


 


 

 
 E| |0----------------------|
 B| |1----------------------|
 G|3|-----------------------|
 D|-|---2-0-----2-0-----0---|
 A|4|-------3-------3-------|
 D| |-----------------------|

 


 | |x |


 


 [C]  

 
 E| |----------------|--------------0-| |--------0-0-------------|
 B| |----3-3---------|------3-------1-| |--------3-3-------------|
 G|4|----2-2-----0h2-|--------0h2-----|3|0-----------------------|
 D|-|0-------0h3-----|0---------------|-|------------2-0-----0---|
 A|4|----------0-----|----------------|4|----3-----------3-------|
 D| |----------------|----------------| |------------------------|


Important: The song above is NOT stored on the Chordie server. The original song is hosted at www.xguitar.com. Chordie works as a search engine and provides on-the-fly formatting. Chordie does not index songs against artists'/composers' will. To remove this song please click here.

This song is displayed as text-only. Transposing and tuning is only available for chordpro-songs.
Rate #1 of 6 versions

Jango Player

Login - add to songbook

SHARE PAGE  




You need to log in to post comments

All1Song (report video to admin):
Solo acoustic version
ERROR: If you can see this, then YouTube is down or you don't have Flash installed.