Roll Another Number (For The Road)

Neil Young

 DD/A
                                     VERSE:
(rest) D D/A G G/A G/B D D/A D
It's too dark to put the keys in my ig-nition,
 D/AD/BDD/AGGG/F#AA/EA
 And the mornin' sun is yet to climb my  hood ornament.      
 AA/BDD/ED/F#GG/AG/BDD/ED/F#G
 But be-fore too long I might see those flashing re-d    lights
 GG/F#E7E7E7/F#GA7DD/AD
 Look out, mama, 'cause I'm   comin' home to-night.      
CHORUS:
(rest) D D/A G G/A G/B D D/A D
Think I'll roll a-nother number for the road,
 D/AD/BDD/AGGG/F#AA/EA
 I   feel able to get under a-ny   load.      
 AA/BDD/ED/F#G
 Though my  feet aren't on  the  ground,
 G/AG/BDD/ED/F#G
 I   been standin' on  the  sound
 GG/F#E7E7E7/F#GA7DGD
 Of some open-hear-ted   people goin' down.     
Instrumental as verse
VERSE:
I'm not goin' back to Woodstock for a while,
Though I long to hear that lonesome hippie smile.
I'm a million miles away from that helicopter day
No, I don't believe I'll be goin' back that way.
CHORUS:
(rest) D D/A G G/A G/B D D/A D
Think I'll roll a-nother number for the road,
 D/AD/BDD/AGGG/F#AA/EA
 I   feel able to get under a-ny   load.      
 AA/BDD/ED/F#G
 Though my  feet aren't on  the  ground,
 G/AG/BDD/ED/F#G
 I   been standin' on  the  sound
 GG/F#E7E7E7/F#GA7DG
 Of some open-hear-ted   people goin' do-wn.
SOLOS:
OK rusties here's my attempt at the tab for the two solos from
Roll Another Number ala WELD. They are not exact, in a couple
of places I do what feels more natural for me, but they should
be pretty close. Please send me corrections and comments....
here's some more trash for ya.....
SOLO 1:
 DGDGD
E ------------|------------|------------|------------|
B ------------|------------|------------|------------|
G ------------|------------|------------|------------|
D 0-------2-4-|5---5/7-5\4-|0-----------|------------|
A ------------|------------|------------|------------|
E ------------|------------|------------|------------|

 DGA
E 2--2--0--2--|------------|------------|------------|
B 3--3--3--3--|3/5--3------|------------|------------|
G ------------|-------4--2-|------------|------------|
D ------------|------------|2-----------|------------|
A ------------|------------|------------|------------|
E ------------|------------|------------|------------|

 DGDG
E ------------|------------|------------|------------|
B 12-151515---|12----12H15-|-------12---|------------|
G ----------14|------------|14-14-----14|12----------|
D ------------|------------|------------|-------12-14|
A ------------|------------|------------|------------|
E ------------|------------|------------|------------|

 EGAD
E ------------|------------|2-----------|
B -------12-15|12----12-10-|3-----------|
G 11-14-------|---14-------|2-----------|
D ------------|------------|------------|
A ------------|------------|------------|
E ------------|------------|------------|

SOLO 2:
 DGDGD
E -----|------------|------------|------------|------------|
B -----|------------|------------|------------|------------|
G -----|------------|------------|------------|------------|
D -----|------------|------------|------------|------------|
A 0-2-4|5--5--5--5--|4--2-4/5--2-|0-----------|---------2-4|
E -----|------------|------------|------------|------------|

 DGA
E ------------|------------|------------|------------|
B ------------|------------|------------|------------|
G ------------|------------|------------|------------|
D ----------4-|5-4---------|------------|------------|
A 5--5--7-----|-----5---2--|------------|------------|
E ------------|------------|0-----------|------------|

 DGDG
E ------------|------------|---14-15-17-|19-------19-|
B 1515--15--12|10-12--10-12|15----------|------------|
G ------------|------------|------------|------------|
D ------------|------------|------------|------------|
A ------------|------------|------------|------------|
E ------------|------------|------------|------------|

 EGAD
E 19-------19-|------------|14----------|
B ------------|15-15H17----|15----------|
G ------------|------------|------------|
D ------------|------------|------------|
A ------------|------------|------------|
E ------------|------------|------------|



A A/B A/E A7 D D/B D/E D/F# E E7 E7/F# G G/B G/F#
variations - click chord images
Transpose chords:
Tuning:
Cool service:
View: Size:
A  A  A
Rating:
Layout:
  • Currently 3.2/5 Stars.
  • 1
  • 2
  • 3
  • 4
  • 5
 
Accuracy:
  • Currently 2.2/5 Stars.
  • 1
  • 2
  • 3
  • 4
  • 5
 
click stars to rate
Chordie recommends:
Get acoustic guitar lessons and electric guitar lessons at JamPlay.com
Songbook:
Login to add this song to your songbook
Support the artist
Preview/buy this song
MSN Music
Why this non-profit ad?

 
login to add comments/video/corrections