Guitar Tabs, Chords and Lyrics


Love Vigilantes    New Order



LOVE VIGILANTES
                            As recorded by New Order
                         (From the 2005 Album SUBSTANCE)

Music by New Order
Transcribed by jam9383@yahoo.com
Made this from a powertab I made

Gtr I (E A D G B E) - 'Voice'
Gtr II (E A D G B E) - 'Harmonica'
Gtr III (E A D G B E) - 'Electric 2'
Gtr IV (E A D G B E) - 'Acoustic'
Gtr V (E A D G B E) - 'Acoustic 2'
Gtr VI (E A D G B E) - 'Bridge overdub'

 Intro
  Q=125
 4/4
  Gtr II
  W           E E  E E  E  E E  E   E  E  Q   Q   Q     E E  E E  E  E E  E
|----------|-10---10---10-10---10-|---10-10--15--14--|-----------------------|
|----------|----------------------|------------------|-15---15---15-15---15--|
|----------|----------------------|------------------|-----------------------|
|----------|----------------------|------------------|-----------------------|
|----------|----------------------|------------------|-----------------------|
|----------|----------------------|------------------|-----------------------|


  E  E  Q   Q   Q     E E  E E  E  E E  E
|----------15--14--|----------------------|
|---15-15----------|-15---15---15-15---15-|
|------------------|----------------------|
|------------------|----------------------|
|------------------|----------------------|
|------------------|----------------------|


  E  E  Q   E  E  E  E    W          W
|----------15-14-15-14-|-15--------|------|
|---15-15--------------|-----------|------|
|----------------------|-----------|------|
|----------------------|-----------|------|
|----------------------|-----------|------|
|----------------------|-----------|------|


 Bridge
  Gtr IV
  E E E E E E E E   E E E E S S E E E   E E E E E E E E
|-----------------|-------------------|------------------|
|-------------3---|-------------------|-------------3----|
|-2-4---2-4-----4-|---2-4---2-2-2-4---|-2-4---2-4-----4--|
|-----------------|-------------------|------------------|
|-----------------|-------------------|------------------|
|-----------------|-------------------|------------------|


  E E E E S S E E E   E E E E E E E E   E E E E Q  Q    +W           W
|-------------------|-----------------|---------------|------------|------|
|-------------------|-------------3---|---------------|------------|------|
|---2-4---2-2-2-4---|-2-4---2-4-----4-|---2-4---2--0--|-(0)--------|------|
|-------------------|-----------------|---------------|------------|------|
|-------------------|-----------------|---------------|------------|------|
|-------------------|-----------------|---------------|------------|------|


   Verse
    Gtr I
     E  E  +Q     +E  E  Q      H        Q    Q
||---------------------------|--------------------|
||o--------------------------|--------------------|
||---------------------------|--------------------|
||-----12-(12)---(12)--------|--------------------|
||o-14------------------14---|-12-------12---14---|
||---------------------------|--------------------|
|
|   Gtr IV
|    E  E   E  E   E  E  E E    E E E E  E E  E E
||---------------------------|--------------------|
||o--------------------------|--------------------|
||------0----------0-----0---|----0------0----0-2-|
||---2---------2-----------2-|--2-----2-----------|
||o--------------------------|--------------------|
||---------------------------|--------------------|


   E  E  Q    Q    E E    H        Q    Q
|----------------------|---------------------|
|----------------------|---------------------|
|----------------------|---------------------|
|----------------------|---------------------|
|-----------------10---|-10------------10----|
|-15-15-15---12--------|----------12---------|
|
|  E  E  E E  E E  E E    E E E E  E E  E E
|----------------------|---------------------|
|--3-------3-------3---|----3---3-------3----|
|-----4-------4------4-|--4--------4------4--|
|----------------------|---------------------|
|----------------------|---------------------|
|----------------------|---------------------|


  E  E  Q   Q    Q     Q    H          Q      W              W
|-------------------|----------------------|---------------|------------||
|-------------------|----------------------|---------------|-----------o||
|-------------------|----------------------|---------------|------------||
|-------------------|----------------------|---------------|------------||
|---10-10-------10--|-10--------------10---|---------------|-----------o||
|----------12-------|------12--------------|-10------------|------------||
|
| E  E  Q   E E  Q     E E  E E +E  E +Q     +W              W
|-------------------|----------------------|---------------|------------||
|-------------------|----------------------|---------------|-----------o||
|-5--4------5-4-----|--5-4----2-(2)-0-(0)--|-(0)-----------|------------||
|-------------------|----------------------|---------------|------------||
|-------------------|----------------------|---------------|-----------o||
|-------------------|----------------------|---------------|------------||
|
| Gtr V
| W                    W                      Q   Q  Q  Q    H    H
|-------------------|----------------------|---------------|------------||
|-------------------|----------------------|--3---3--3-----|-3----3----o||
|-------------------|----------------------|--2---2--4-----|-2----4-----||
|-------------------|----------------------|--5---5--5-----|-5----5-----||
|-------------------|----------------------|--5---5--5-----|-5----5----o||
|-------------------|----------------------|---------------|------------||


 Chorus
  Gtr IV
  E E E E E E E E   E E E E S S E E E   E E E E E E E E
|-----------------|-------------------|------------------|
|-------------3---|-------------------|-------------3----|
|-2-4---2-4-----4-|---2-4---2-2-2-4---|-2-4---2-4-----4--|
|-----------------|-------------------|------------------|
|-----------------|-------------------|------------------|
|-----------------|-------------------|------------------|
|
| Gtr I
| E E E E E E E E   E E E E S S E E E   E E E E E E E E
|-----------------|-------------------|------------------|
|-----------------|-------------------|------------------|
|-------------7---|-------------------|-------------7----|
|-7-9---7-9-----9-|---7-9---7-7-7-9---|-7-9---7-9-----9--|
|-----------------|-------------------|------------------|
|-----------------|-------------------|------------------|


   E  E E  E  E E  E  E   E  E  E E  S  S  E  E E
|-----------------------|-------------------------|
|-----------------------|-------------------------|
|-----------------------|-------------------------|
|-----------------12----|-------------------------|
|-12-14---12-14------14-|---12-14---12-12-12-14---|
|-----------------------|-------------------------|
|
|  E  E E  E  E E  E  E   E  E  E E  S  S  E  E E
|-----------------------|-------------------------|
|------------------3----|-------------------------|
|--2--4----2--4-------4-|----2--4----2--2--2--4---|
|-----------------------|-------------------------|
|-----------------------|-------------------------|
|-----------------------|-------------------------|


   E  E E  E  Q    E  E    Q    H      Q     W
|-----------------------|-----------------|-------|
|-----------------------|-----------------|-------|
|-----------------------|-----------------|-------|
|------------12---------|-----------------|-------|
|-12-14---14------14-15-|-14--------------|-------|
|-----------------------|------15---------|-15----|
|
|  E  E E  E  E E  E  E    E E  E E Q  Q     W
|-----------------------|-----------------|-------|
|------------------3----|-----------------|-------|
|--2--4----2--4-------4-|----2--4---2--0--|-------|
|-----------------------|-----------------|-------|
|-----------------------|-----------------|-------|
|-----------------------|-----------------|--3----|


 Solo
  Gtr VI
  Q.     Q.     Q     +H        Q     Q     Q.     Q.      Q
|-------------------|---------------------|---------------------|
|-------------------|---------------------|---------------------|
|-------------------|---------------------|---------------------|
|-7------9------5---|-(5)-------------5---|-7------9------10----|
|-------------------|---------------------|---------------------|
|-------------------|---------------------|---------------------|
|
| Gtr IV
| E  E E E  E E E E    E  E E E S S E E E   E  E E E  E E  E E
|-------------------|---------------------|---------------------|
|---------------3---|---------------------|----------------3----|
|-2--4---2--4-----4-|-----2-4---2-2-2-4---|-2--4---2--4------4--|
|-------------------|---------------------|---------------------|
|-------------------|---------------------|---------------------|
|-------------------|---------------------|---------------------|


  Gtr VI
   +H        Q   q       Q.      Q.     Q     Q.     Q.    Q     H     H
|----------------------|--------------------|-----------------|-------------|
|----------------------|--------------------|-----------------|-------------|
|----------------------|--------------------|-----------------|-------------|
|-(10)-----------7-----|-9------10----------|-5---------------|-------------|
|----------------------|--------------------|--------5--------|-------------|
|----------------------|--------------------|--------------3--|--3----------|
|
|   E  E E E S S E E E   E  E E  E  E E E E   E  E E E  Q  Q    +W
|----------------------|--------------------|-----------------|-------------|
|----------------------|----------------3---|-----------------|-------------|
|------2-4---2-2-2-4---|-2--4----2--4-----4-|----2-4----2--0--|-(0)---------|
|----------------------|--------------------|-----------------|-------------|
|----------------------|--------------------|-----------------|-------------|
|----------------------|--------------------|-----------------|-------------|


 Solo
  Gtr VI
  Q.     Q.     Q     +H        Q     Q     Q.     Q.      Q
|-------------------|---------------------|---------------------|
|-------------------|---------------------|---------------------|
|-------------------|---------------------|---------------------|
|-7------9------5---|-(5)-------------5---|-7------9------10----|
|-------------------|---------------------|---------------------|
|-------------------|---------------------|---------------------|
|
| Gtr IV
| E  E E E  E E E E    E  E E E S S E E E   E  E E E  E E  E E
|-------------------|---------------------|---------------------|
|---------------3---|---------------------|----------------3----|
|-2--4---2--4-----4-|-----2-4---2-2-2-4---|-2--4---2--4------4--|
|-------------------|---------------------|---------------------|
|-------------------|---------------------|---------------------|
|-------------------|---------------------|---------------------|


  Gtr VI
   H       Q   q       Q.      Q.     Q     Q.     Q.    Q     H     H
|--------------------|--------------------|-----------------|-------------|
|--------------------|--------------------|-----------------|-------------|
|--------------------|--------------------|-----------------|-------------|
|-10-----------7-----|-9------10----------|-5---------------|-------------|
|--------------------|--------------------|--------5--------|-------------|
|--------------------|--------------------|--------------3--|--3----------|
|
|  E E E E S S E E E   E  E E  E  E E E E   E  E E E  Q  Q    +W
|--------------------|--------------------|-----------------|-------------|
|--------------------|----------------3---|-----------------|-------------|
|----2-4---2-2-2-4---|-2--4----2--4-----4-|----2-4----2--0--|-(0)---------|
|--------------------|--------------------|-----------------|-------------|
|--------------------|--------------------|-----------------|-------------|
|--------------------|--------------------|-----------------|-------------|


   Break
    E S S S E S +S  E S S S S S   E S S S E S +S  E S S S S S
||--3-3-x-x-3-3-(3)-3-3-3-x-x-x-|-3-3-x-x-3-3-(3)-3-3-3-x-x-x-|
||o-3-3-x-x-3-3-(3)-3-3-3-x-x-x-|-3-3-x-x-3-3-(3)-3-3-3-x-x-x-|
||--4-4-x-x-4-4-(4)-4-4-4-x-x-x-|-4-4-x-x-4-4-(4)-4-4-4-x-x-x-|
||--5-5-x-x-5-5-(5)-5-5-5-x-x-x-|-5-5-x-x-5-5-(5)-5-5-5-x-x-x-|
||o-5-5-x-x-5-5-(5)-5-5-5-x-x-x-|-5-5-x-x-5-5-(5)-5-5-5-x-x-x-|
||--3-3-x-x-3-3-(3)-3-3-3-x-x-x-|-3-3-x-x-3-3-(3)-3-3-3-x-x-x-|


  E S S S E S +S  S S S S S S S
|-3-x-3-x-3-3-(3)-x---3-3-x-x-x--|
|-3-x-3-x-3-3-(3)-x---3-3-x-x-x--|
|-4-x-4-x-4-4-(4)-x---4-4-x-x-x--|
|-5-x-5-x-5-5-(5)-x---5-5-x-x-x--|
|-5-x-5-x-5-5-(5)-x---5-5-x-x-x--|
|-3-x-3-x-3-3-(3)-x---3-3-x-x-x--|


  E S S S E S +S  E S S S S S   E S S S E S +S  S S S S S S S
|-3-3-x-x-3-3-(3)-3-3-3-x-x-x-|-3-x-3-x-3-3-(3)-x---3-3-x-x-x-|
|-3-3-x-x-3-3-(3)-3-3-3-x-x-x-|-3-x-3-x-3-3-(3)-x---3-3-x-x-x-|
|-4-4-x-x-4-4-(4)-4-4-4-x-x-x-|-4-x-4-x-4-4-(4)-x---4-4-x-x-x-|
|-5-5-x-x-5-5-(5)-5-5-5-x-x-x-|-5-x-5-x-5-5-(5)-x---5-5-x-x-x-|
|-5-5-x-x-5-5-(5)-5-5-5-x-x-x-|-5-x-5-x-5-5-(5)-x---5-5-x-x-x-|
|-3-3-x-x-3-3-(3)-3-3-3-x-x-x-|-3-x-3-x-3-3-(3)-x---3-3-x-x-x-|


  E S S S E S +S  E S S S S S   E S S S E S S E S S S S S
|-3-3-x-x-3-3-(3)-3-3-3-x-x-x-|-3-x-x-x-3-x---3-3-x-x-3-x---||
|-3-3-x-x-3-3-(3)-3-3-3-x-x-x-|-3-x-x-x-3-x---3-3-x-x-3-x--o||
|-4-4-x-x-4-4-(4)-4-4-4-x-x-x-|-4-x-x-x-4-x---4-4-x-x-4-x---||
|-5-5-x-x-5-5-(5)-5-5-5-x-x-x-|-5-x-x-x-5-x---5-5-x-x-5-x---||
|-5-5-x-x-5-5-(5)-5-5-5-x-x-x-|-5-x-x-x-5-x---5-5-x-x-5-x--o||
|-3-3-x-x-3-3-(3)-3-3-3-x-x-x-|-3-x-x-x-3-x---3-3-x-x-3-x---||


 Outro
  Gtr VI
  Q.     Q.     Q     +H        Q     Q     Q.     Q.      Q
|-------------------|---------------------|---------------------|
|-------------------|---------------------|---------------------|
|-------------------|---------------------|---------------------|
|-7------9------5---|-(5)-------------5---|-7------9------10----|
|-------------------|---------------------|---------------------|
|-------------------|---------------------|---------------------|
|
| Gtr IV
| E  E E E  E E E E    E  E E E S S E E E   E  E E E  E E  E E
|-------------------|---------------------|---------------------|
|---------------3---|---------------------|----------------3----|
|-2--4---2--4-----4-|-----2-4---2-2-2-4---|-2--4---2--4------4--|
|-------------------|---------------------|---------------------|
|-------------------|---------------------|---------------------|
|-------------------|---------------------|---------------------|


  Gtr VI
   H       Q   q       Q.      Q.     Q     Q.     Q.    Q     H     H
|--------------------|--------------------|-----------------|-------------*|
|--------------------|--------------------|-----------------|-------------*|
|--------------------|--------------------|-----------------|-------------*|
|-10-----------7-----|-9------10----------|-5---------------|-------------*|
|--------------------|--------------------|--------5--------|-------------*|
|--------------------|--------------------|--------------3--|--3----------*|
|
|  E E E E S S E E E   E  E E  E  E E E E   E  E E E  Q  Q    +W
|--------------------|--------------------|-----------------|-------------*|
|--------------------|----------------3---|-----------------|-------------*|
|----2-4---2-2-2-4---|-2--4----2--4-----4-|----2-4----2--0--|-(0)---------*|
|--------------------|--------------------|-----------------|-------------*|
|--------------------|--------------------|-----------------|-------------*|
|--------------------|--------------------|-----------------|-------------*|


Duration Legend
---------------
W - whole; H - half; Q - quarter; E - 8th; S - 16th; T - 32nd; X - 64th; a - acciaccatura
+ - note tied to previous; . - note dotted; .. - note double dotted
Uncapitalized letters represent notes that are staccato (1/2 duration)
Irregular groupings are notated above the duration line
Duration letters will always appear directly above the note/fret number it represents the
duration for.  Duration letters with no fret number below them represent rests.  Multi-
bar rests are notated in the form Wxn, where n is the number of bars to rest for.  Low
melody durations appear below the staff

Tablature Legend
----------------
 h   - hammer-on
 p   - pull-off
 b   - bend
 pb  - pre-bend
 r   - bend release (if no number after the r, then release immediately)
 /\  - slide into or out of (from/to "nowhere")
 s   - legato slide
 S   - shift slide
  - natural harmonic
[n]  - artificial harmonic
n(n) - tapped harmonic
 ~   - vibrato
 tr  - trill
 T   - tap
 TP  - trem. picking
 PM  - palm muting
\n/  - tremolo bar dip; n = amount to dip
 \n  - tremolo bar down
 n/  - tremolo bar up
/n\  - tremolo bar inverted dip
 =   - hold bend; also acts as connecting device for hammers/pulls
   - volume swell (louder/softer)
 x   - on rhythm slash represents muted slash
 o   - on rhythm slash represents single note slash

Misc Legend
-----------
 |  - bar
||  - double bar
||o - repeat start
o|| - repeat end
*|  - double bar (ending)
 :  - bar (freetime)
 $  - Segno
 &  - Coda


Important: The song above is NOT stored on the Chordie server. The original song is hosted at www.xguitar.com. Chordie works as a search engine and provides on-the-fly formatting. Chordie does not index songs against artists/composers will. To remove this song please click here.

This song is displayed as text-only. Transposing and tuning is only available for chordpro-songs.

Login - add to songbook

Rating click stars to rate

Layout
Accuracy

SHARE PAGE  




You need to log in to post comments