Guitar Tabs, Chords and Lyrics


Blue Monday    New Order



New Order - Blue Monday
Tabbed By Sam Ellis
Babyshambles19@hotmail.co.uk

Pretty cool song, the band I'm in fancied covering it n I didn't like n e of the tabs so
had ago myself.

Into and verse riff
E|------------------------------------------------------------|
B|------------------------------------------------------------|
G|------------------------------------------------------------|
D|------------------------------------------------------------|
A|--10-10-10-12-5-5-5-5-7-7-7-7-7-7-7-7-----------------------|
E|------------------------------------------------------------|
This sounds ok bar chorded as well,or like scar style bar chorded to.

Synth riff for guitar
E|---6---------------------------6----------------------------|
B|------7--8------------------------7--5----------------------|
G|------------------------------------------------------------|
D|------------------------------------------------------------|
A|------------------------------------------------------------|
E|------------------------------------------------------------|

chorus
E|------------------------------------------------------------|
B|------------------------------------------------------------|
G|--2222-----------------4444---------------------------------|
D|--2222-2222-44444444---4444-2222-44444444-------------------|
A|--0000-2222-44444444---2222-2222-44444444-------------------|
E|-------0000-22222222--------0000-22222222-------------------|

Synth solo riff for guitar, sorta works I jus play round in that key
E------------------------------------------------------------|
B------------------------------------------------------------|
G------------------------------------------------------------|
D---------------8-------8------------------------------------|
A----6-4---4-6----9-4-6---9-6-6------------------------------|


Important: The song above is NOT stored on the Chordie server. The original song is hosted at www.xguitar.com. Chordie works as a search engine and provides on-the-fly formatting. Chordie does not index songs against artists/composers will. To remove this song please click here.

This song is displayed as text-only. Transposing and tuning is only available for chordpro-songs.

Login - add to songbook

Rating click stars to rate

Layout
Accuracy

SHARE PAGE  




You need to log in to post comments