eToCache5 = ""; ?> Regret by New Order - guitar chords, guitar tabs and lyrics - chordie

Regret

New Order

 Cbords
 AmBbCDmF
|---5-----6-----8-----5-----------------|
|---5-----6-----8-----6----10-----------|
|---5-----7-----9-----7----10-----------|
|---7-----8----10-----7----10-----------|
|---7-----8----10-----5-----8-----------|
|---5-----6-----8-----------------------|


 Intro

 CFill 1
|---8----------------------------------|---0--0--------0--------0---------0---|
|---8----------------------------------|---0--1--------3--------0---------0---|
|--------------------------------------|---0--0--------0--------0---------0---|
|--------------------------------------|---2--2--------2--------2---------2---|
|--------------------------------------|---3--3--------3--------3---------3---|
|--------------------------------------|--------------------------------------|


 AmFill 1
|--(0)---------------------------------|---0--0--------0--------0---------0---|
|--(0)---------------------------------|---0--1--------3--------0---------0---|
|--(0)---------------------------------|---0--0--------0--------0---------0---|
|--(2)---------------------------------|---2--2--------2--------2---------2---|
|--(3)---------------------------------|---3--3--------3--------3---------3---|
|--------------------------------------|--------------------------------------|


 FFill 1
|--(0)---------------------------------|---0--0--------0--------0---------0---|
|--(0)---------------------------------|---0--1--------3--------0---------0---|
|--(0)---------------------------------|---0--0--------0--------0---------0---|
|--(2)---------------------------------|---2--2--------2--------2---------2---|
|--(3)---------------------------------|---3--3--------3--------3---------3---|
|--------------------------------------|--------------------------------------|


 Riff 1
 C
|--(0)-0---0----0----0----0----0----0--|---0--0--------0--------0---------0---|
|--(0)-1---1----1----1----1----1----1--|---0--1--------3--------0---------1---|
|--(0)-0---0----0----0----0----0----0--|---0--0--------0--------0---------0---|
|--(2)-2---2----2----2----2----2----2--|---2--2--------2--------2---------2---|
|--(3)-3---3----3----3----3----3----3--|---3--3--------3--------3---------3---|
|--------------------------------------|--------------------------------------|
|--(0)-0---0----0----0----0----0----0--|---0--0--------0--------0---------0---|
|--(1)-1---1----1----1----1----1----1--|---0--1--------3--------0---------0---|
|--(0)-0---0----0----0----0----0----0--|---0--0--------0--------0---------0---|
|--(2)-2---2----2----2----2----2----2--|---2--2--------2--------2---------2---|
|--(3)-3---3----3----3----3----3----3--|---3--3--------3--------3---------3---|
|--------------------------------------|--------------------------------------|


 F
|--(0)-0---0----0----0----0----0----0--|---0--0--------0--------0---------0---|
|--(0)-1---1----1----1----1----1----1--|---0--1--------3--------0---------1---|
|--(0)-0---0----0----0----0----0----0--|---0--0--------0--------0---------0---|
|--(2)-2---2----2----2----2----2----2--|---2--2--------2--------2---------2---|
|--(3)-3---3----3----3----3----3----3--|---3--3--------3--------3---------3---|
|--------------------------------------|--------------------------------------|


 C
|--(0)-0---0----0----0----0----0----0--|---0--0--------0--------0---------0---|
|--(1)-1---1----1----1----1----1----1--|---0--1--------3--------0---------0---|
|--(0)-0---0----0----0----0----0----0--|---0--0--------0--------0---------0---|
|--(2)-2---2----2----2----2----2----2--|---2--2--------2--------2---------2---|
|--(3)-3---3----3----3----3----3----3--|---3--3--------3--------3---------3---|
|--------------------------------------|--------------------------------------|


 Riff 2
 FAm
|--(0)----------3--------1---------0---|--(0)----------3--------1---------0---|
|--(0)-----1---(1)------(1)--------0---|--(0)------1--(1)------(1)--------0---|
|--(0)----(0)--(0)------(0)--------0---|--(0)-----(0)-(0)------(0)--------0---|
|--(2)----(2)--(2)------(2)--------2---|--(2)-----(2)-(2)------(2)--------2---|
|--(3)----(3)--(3)------(3)--------3---|--(3)-----(3)-(3)------(3)--------3---|
|--------------------------------------|--------------------------------------|


 FC
|--(0)----------3--------1---------0---|--(0)------0---0---0----0----0----0---|
|--(0)-----1---(1)------(1)--------0---|--(0)------0---0---0----0----0----0---|
|--(0)----(0)--(0)------(0)--------0---|--(0)------0---0---0----0----0----0---|
|--(2)----(2)--(2)------(2)--------2---|--(2)------2---2---2----2----2----2---|
|--(3)----(3)--(3)------(3)--------3---|--(3)------3---3---3----3----3----3---|
|--------------------------------------|--------------------------------------|


 FAm
|--(0)----------3--------1---------0---|--(0)----------3--------1---------0---|
|--(0)-----1---(1)------(1)--------0---|--(0)------1--(1)------(1)--------0---|
|--(0)----(0)--(0)------(0)--------0---|--(0)-----(0)-(0)------(0)--------0---|
|--(2)----(2)--(2)------(2)--------2---|--(2)-----(2)-(2)------(2)--------2---|
|--(3)----(3)--(3)------(3)--------3---|--(3)-----(3)-(3)------(3)--------3---|
|--------------------------------------|--------------------------------------|


 FC
|--(0)----------3--------1---------0---|--(0)------0---0---0----0----0----0---|
|--(0)-----1---(1)------(1)--------0---|--(0)------0---0---0----0----0----0---|
|--(0)----(0)--(0)------(0)--------0---|--(0)------0---0---0----0----0----0---|
|--(2)----(2)--(2)------(2)--------2---|--(2)------2---2---2----2----2----2---|
|--(3)----(3)--(3)------(3)--------3---|--(3)------3---3---3----3----3----3---|
|--------------------------------------|--------------------------------------|


 F
 Maybe ...
 Bb
The ..
 F
Of ...
 Bb
It's ...
 DmAm
 Save ..       
 Bb
It's ..   
 Fill 1
                   C    
The ...

 Riff 1
I ..
Have ...
Wake ..
I ..

 Riff 2
I ..
Almost ..
You ..
Now ..

 F
..
 Bb
I've not ..
 F
We're ..
 Bb
 We ..
 DmAm
 You ...                 
 Bb
That ..
 CAm
On ..              
 Fill 1
Bb                      C  
Look ..

 Riff 1
I would ..
Have ..
Wake ..
I ..

 Riff 2
I ..
Burning ..
You ..
Now ..

 Bridge: F Bb F Bb Dm Am Bb CFill 1

 Riff 1
I ..
Have ..
Wake ..
I ..

 Riff 1
Just ..
I ...
Just ..

 Outro

 FAm
|--(0)----------3--------1---------0---|--(0)----------3--------1---------0---|
|--(0)-----1---(1)------(1)--------0---|--(0)------1--(1)------(1)--------0---|
|--(0)----(0)--(0)------(0)--------0---|--(0)-----(0)-(0)------(0)--------0---|
|--(2)----(2)--(2)------(2)--------2---|--(2)-----(2)-(2)------(2)--------2---|
|--(3)----(3)--(3)------(3)--------3---|--(3)-----(3)-(3)------(3)--------3---|
|--------------------------------------|--------------------------------------|


 FC
|--(0)----------3--------1---------0---|---0--0--------0--------0---------0---|
|--(0)-----1---(1)------(1)--------0---|---0--1--------3--------0---------0---|
|--(0)----(0)--(0)------(0)--------0---|---0--0--------0--------0---------0---|
|--(2)----(2)--(2)------(2)--------2---|---2--2--------2--------2---------2---|
|--(3)----(3)--(3)------(3)--------3---|---3--3--------3--------3---------3---|
|--------------------------------------|--------------------------------------|


 FAm
|--(0)----------3--------1---------0---|--(0)----------3--------1---------0---|
|--(0)-----1---(1)------(1)--------0---|--(0)------1--(1)------(1)--------0---|
|--(0)----(0)--(0)------(0)--------0---|--(0)-----(0)-(0)------(0)--------0---|
|--(2)----(2)--(2)------(2)--------2---|--(2)-----(2)-(2)------(2)--------2---|
|--(3)----(3)--(3)------(3)--------3---|--(3)-----(3)-(3)------(3)--------3---|
|--------------------------------------|--------------------------------------|


 FC
|--(0)----------3--------1---------0---|---0--0--------0--------0---------0---|
|--(0)-----1---(1)------(1)--------0---|---0--1--------3--------0---------0---|
|--(0)----(0)--(0)------(0)--------0---|---0--0--------0--------0---------0---|
|--(2)----(2)--(2)------(2)--------2---|---2--2--------2--------2---------2---|
|--(3)----(3)--(3)------(3)--------3---|---3--3--------3--------3---------3---|
|--------------------------------------|--------------------------------------|


 FAm
|--(0)----------3--------1---------0---|--(0)----------3--------1---------0---|
|--(0)-----1---(1)------(1)--------0---|--(0)------1--(1)------(1)--------0---|
|--(0)----(0)--(0)------(0)--------0---|--(0)-----(0)-(0)------(0)--------0---|
|--(2)----(2)--(2)------(2)--------2---|--(2)-----(2)-(2)------(2)--------2---|
|--(3)----(3)--(3)------(3)--------3---|--(3)-----(3)-(3)------(3)--------3---|
|--------------------------------------|--------------------------------------|


 FC
|--(0)----------3--------1---------0---|---0--0--------0--------0---------0---|
|--(0)-----1---(1)------(1)--------0---|---0--1--------3--------0---------1---|
|--(0)----(0)--(0)------(0)--------0---|---0--0--------0--------0---------0---|
|--(2)----(2)--(2)------(2)--------2---|---2--2--------2--------2---------2---|
|--(3)----(3)--(3)------(3)--------3---|---3--3--------3--------3---------3---|
|--------------------------------------|--------------------------------------|


 C
|--(0)---------------------------------|
|--(1)---------------------------------|
|--(0)---------------------------------|
|--(2)---------------------------------|
|--(3)---------------------------------|
|--------------------------------------|



Am Bb C Dm F
variations - click chord images
Transpose chords:
Tuning:
Cool service:
View: Size:
A  A  A
Rating:
Layout:
  • Currently 5/5 Stars.
  • 1
  • 2
  • 3
  • 4
  • 5
 
Accuracy:
  • Currently 4.3/5 Stars.
  • 1
  • 2
  • 3
  • 4
  • 5
 
click stars to rate
Chordie recommends:
Learn to play this song & others via video guitar lessons at JamPlay.com
Songbook:
Login to add this song to your songbook
Support the artist
Preview/buy this song
MSN Music
Why this non-profit ad?

 
login to add comments/video/corrections