Guitar Tabs, Chords and Lyrics


Window Shopper   Nickelback



Nickelback - Winsow Shopper
Album - Curb
Tuning - Standard EADGBe

Intro and Main Riff

E-------------------------
B-------------------------
G-------------------------
D--8-8-5--X5-X5-X5--8-8-5-
A--8-8-5--X5-X5-X5--8-8-5-
E--6-6-3--X3-X3-X3--6-6-3-

Main Riff

E---------------------------------------------
B---------------------------------------------
G--------------------------------------5-5-5--
D--8-8-5--X5--10-10-3--X5-8-8-3-X3-3-3-5-5-5--
A--8-8-5--X5--10-10-5--X5-8-8-5-X5-3-3-3-3-3--
E--6-6-3--X3---8--8-5--X5-6-6-5-X5-1-1--------




Important: The song above is NOT stored on the Chordie server. The original song is hosted at www.xguitar.com. Chordie works as a search engine and provides on-the-fly formatting. Chordie does not index songs against artists/composers will. To remove this song please click here.

This song is displayed as text-only. Transposing and tuning is only available for chordpro-songs.

Login - add to songbook

Rating click stars to rate

Layout
Accuracy

SHARE PAGE  




You need to log in to post comments