"yes"; ?> Someday by Nickelback - guitar chords, guitar tabs and lyrics - chordie

Someday

Nickelback

 BmGAD
E|-----2----------|------3---------|------0---------|2------------||
B|----3-----------|-----0----------|-----2----------|3------------||
G|---4------------|----0-----------|----2-----------|2------------||
D|--4-------------|---0------------|---2------------|0------------||
A|-2--------------|--2-------------|--0-------------|0------------||
E|0---------------|-3--------------|-0--------------|0------------||


How the Hell'd We Wind Up like this
Why weren't we able, to see the signs that we missed
And try to turn the tables

** here on the a chord go fast and play this

E|----------------||
B|---3-2----------||
G|-------2--------||
D|----------------||
A|----------------||
D|----------------||


I wish you'd unclench your fists
And unpack your suitcase
Lately theres been too much of this
But don't think its too late

--------


Then The distortion guitar ( remember dropped D )

E|-x--------------|-x---------------|x-x----|---x------------||
B|-x--------------|-x---------------|x-x----|---x------------||
G|-x--------------|-x---------------|x-x----|---x------------||
D|-2--------------|-2---------------|2/7----|---7------------||
A|-2--------------|-2---------------|2/2----|---7------------||
D|-2--------------|-2---------------|2/7----|---7------------||

Palm Muted 5x|3x times (No Palm| | 4x times

Nothin's wrong, just as long as you know that someday i will

(Chorus)

E|-x-x-x-x-x-x-x-x|-x-x-x-x--------|----------------|----------------||
B|-x-x-x-x-x-x-x-x|-x-x-x-x--------|----------------|----------------||
G|-x-x-x-x-x-x-x-x|-x-x-x-x--------|----------------|----------------||
D|-5-0-7-2-2-2-2-2|-5-7-9-7--------|----------------|----------------||
A|-5-0-7-2-2-2-2-2|-5-7-9-7--------|----------------|----------------||
D|-5-0-7-2-2-2-2-2|-5-7-9-7--------|----------------|----------------||
|-x-x-x-x-x-x-x-x|-x-x-x---------|
|-x-x-x-x-x-x-x-x|-x-x-x---------|
|-x-x-x-x-x-x-x-x|-x-x-x---------|
|-5-0-7-2-2-2-2-2|-5-7-2---------|
|-5-0-7-2-2-2-2-2|-5-7-2---------|
|-5-0-7-2-2-2-2-2|-5-7-2---------|


Someday, Somehow
I'm gonna make it alright but not right now
I know your wandering when
(Your the only one who knows that)

Someday, Somehow
I'm gonna make it alright but not right now
I know your wandering when.

-----Again The acoustic guitar

 BmGAD
E|-----2----------|------3---------|------0---------|2------------||
B|----3-----------|-----0----------|-----2----------|3------------||
G|---4------------|----0-----------|----2-----------|2------------||
D|--4-------------|---0------------|---2------------|0------------||
A|-2--------------|--2-------------|--0-------------|0------------||
E|0---------------|-3--------------|-0--------------|0------------||


I'd hoped that since we're here anyways
We could end up saying
Things we've always needed to say
So we could end up staying

now here play the A chord and then

E|----------------||
B|---3-2----------||
G|-------2--------||
D|----------------||
A|----------------||
D|----------------||


Now the stories bleed out like this
Just like a paperback novel
Lets rewrite it, it even fits
Instead of hollywood horror
But don't think its too late

 ----
Pre Chorus

E|-x--------------|-x---------------|x-x----|---x------------||
B|-x--------------|-x---------------|x-x----|---x------------||
G|-x--------------|-x---------------|x-x----|---x------------||
D|-2--------------|-2---------------|2/7----|---7------------||
A|-2--------------|-2---------------|2/2----|---7------------||
D|-2--------------|-2---------------|2/7----|---7------------||

Palm Muted 5x|3x times (No Palm| | 4x times

Nothin's wrong, just as long as you know that someday i will

Repeat Chorus

(Chorus)

E|-x-x-x-x-x-x-x-x|-x-x-x-x--------|----------------|----------------||
B|-x-x-x-x-x-x-x-x|-x-x-x-x--------|----------------|----------------||
G|-x-x-x-x-x-x-x-x|-x-x-x-x--------|----------------|----------------||
D|-5-0-7-2-2-2-2-2|-5-7-9-7--------|----------------|----------------||
A|-5-0-7-2-2-2-2-2|-5-7-9-7--------|----------------|----------------||
D|-5-0-7-2-2-2-2-2|-5-7-9-7--------|----------------|----------------||
|-x-x-x-x-x-x-x-x|-x-x-----------|
|-x-x-x-x-x-x-x-x|-x-x-----------|
|-x-x-x-x-x-x-x-x|-x-x-----------|
|-5-0-7-2-2-2-2-2|-5-7-----------|
|-5-0-7-2-2-2-2-2|-5-7-----------|
|-5-0-7-2-2-2-2-2|-5-7-----------|
E|---x-x-x-x-x|----x-x-x-----------||
B|---x-x-x-x-x|----x-x-x-----------||
G|---x-x-x-x-x|----x-x-x-----------||
D|---9-9-9-9-9|----9-9-9-----------||
A|---9-9-9-9-9|----9-9-9-----------||
D|---9-9-9-9-9|----9-9-9-----------||

Palm Mute| W/O Palm mute

Someday, Somehow
I'm gonna make it alright but not right now
I know your wandering when
(Your the only one who knows that)

Someday, Somehow
I'm gonna make it alright but not right now
I know your wondering when Your the only one who knows that

Solo Part

Rythm guitar

E|-x-x-x-x-x-x-x-x|-x-x-x-x--------|
B|-x-x-x-x-x-x-x-x|-x-x-x-x--------|
G|-x-x-x-x-x-x-x-x|-x-x-x-x--------|
D|-5-0-7-2-2-2-2-2|-5-7-9-7--------|
A|-5-0-7-2-2-2-2-2|-5-7-9-7--------|
D|-5-0-7-2-2-2-2-2|-5-7-9-7--------|
E|-x-x-x-x-x-x-x-x|-x-x-x----------|
B|-x-x-x-x-x-x-x-x|-x-x-x----------|
G|-x-x-x-x-x-x-x-x|-x-x-x----------|
D|-5-0-7-2-2-2-2-2|-5-7-9----------|
A|-5-0-7-2-2-2-2-2|-5-7-9----------|
D|-5-0-7-2-2-2-2-2|-5-7-9----------|


Lead Guitar

E|---------------------------------------------------------------------||
B|---------------------------------------------------------------------||
G|---------------------------------------------------------------------||
D|--9/11-12-11-9-11--9/11-12-11-9-11---7-9-11-9-999-11-11-11-12-12-----||
A|-7----------------7-----------------5---7----------------------------||
D|---------------------------------------------------------------------||
E|---------------------------------------------------------------------||
B|---------------------------------------------------------------------||
G|-----------------------------------------------------------9/11-7-9--||
D|-7-7-7-11-11-11-12-12--------------9-9-9-11-11-11--12-11-7-----------||
A|---------------------------------------------------------------------||
D|---------------------------------------------------------------------||
G|-------------------------9/11-7-9--------||
D|-9-9-9-11-11-11--12-11-7-----------------||
A|-----------------------------------------||
D|-----------------------------------------||
E|-----------------------------------||
B|-----------------------------------||
G|---------------------------9-9/11--||
D|9-9-9-11-11-11-12-12-7-7-7--------9||
A|-----------------------------------||
D|-----------------------------------||
-----------------


Last part Clean acoustic

 BmGAD
E|-----2----------|------3---------|------0---------|2------------||
B|----3-----------|-----0----------|-----2----------|3------------||
G|---4------------|----0-----------|----2-----------|2------------||
D|--4-------------|---0------------|---2------------|0------------||
A|-2--------------|--2-------------|--0-------------|0------------||
E|0---------------|-3--------------|-0--------------|0------------||


How the Hell'd we wind up like this
Why weren't we able
To see the signs that we missed
And try to turn the tables

** here in the chord A play the same

E|----------------||
B|---3-2----------||
G|-------2--------||
D|----------------||
A|----------------||
D|----------------||


Now the stories bleed out like this
Just like a paperback novel
Lets rewrite it, it even fits
Instead of hollywood horror.

----pre chorus---------
E|-x--------------|-x---------------|x-x----|---x------------||
B|-x--------------|-x---------------|x-x----|---x------------||
G|-x--------------|-x---------------|x-x----|---x------------||
D|-2--------------|-2---------------|2/7----|---7------------||
A|-2--------------|-2---------------|2/2----|---7------------||
D|-2--------------|-2---------------|2/7----|---7------------||

Palm Muted 5x|3x times (No Palm| | 4x times

Nothin's wrong, just as long as you know that someday i will

(Chorus)

E|-x-x-x-x-x-x-x-x|-x-x-x-x--------|----------------|----------------||
B|-x-x-x-x-x-x-x-x|-x-x-x-x--------|----------------|----------------||
G|-x-x-x-x-x-x-x-x|-x-x-x-x--------|----------------|----------------||
D|-5-0-7-2-2-2-2-2|-5-7-9-7--------|----------------|----------------||
A|-5-0-7-2-2-2-2-2|-5-7-9-7--------|----------------|----------------||
D|-5-0-7-2-2-2-2-2|-5-7-9-7--------|----------------|----------------||
E|-x-x-x-x-x-x-x-x|-x-x-x-x-x-x-x-x-x-x-x-----------------|
B|-x-x-x-x-x-x-x-x|-x-x-x-x-x-x-x-x-x-x-x-----------------|
G|-x-x-x-x-x-x-x-x|-x-x-x-x-x-x-x-x-x-x-x-----------------|
D|-5-0-7-2-2-2-2-2|-5-7-9-7-5-7-9-7-5-7-2-----------------|
A|-5-0-7-2-2-2-2-2|-5-7-9-7-5-7-9-7-5-7-2-----------------|
D|-5-0-7-2-2-2-2-2|-5-7-9-7-5-7-9-7-5-7-2-----------------|


Someday, Somehow
I'm gonna make it alright but not right now
I know your wondering when
(Your the only one who knows that)

Someday, Somehow
I'm gonna make it alright but not right now
I know your wondering when
(Your the only one who knows that)

I know your wondering when
(Your the only one who knows that)

I know your wondering when

Outtro ( clean guitar )

E|-------2--------||
B|----2-0---------||
G|-2H4------------||
D|----------------||
A|----------------||
E|----------------|| 3X times

H= Hammer ON

Note:The Outtro is played in the chorus when is singing '' You are the only one that
knows that''


A Bm D G
variations - click chord images
Transpose chords:
Tuning:
Cool service:
View: Size:
A  A  A
Rating:
Layout:
  • Currently 2.9/5 Stars.
  • 1
  • 2
  • 3
  • 4
  • 5
 
Accuracy:
  • Currently 2.8/5 Stars.
  • 1
  • 2
  • 3
  • 4
  • 5
 
click stars to rate
Chordie recommends:
Learn how to play guitar at JamPlay.com
Songbook:
Login to add this song to your songbook
Support the artist
Preview/buy this song
MSN Music
Why this non-profit ad?

 
login to add comments/video/corrections