Guitar Tabs, Chords and Lyrics


One Last Run   Nickelback



One Last Run
Normal Tuning EADGBe
Tabbed by Nickeldude

Intro

E------------------------
B------------------------
G------------------------
D------------------------
A------------------------
E--3-1-h3-1-h3-1-h3-1-h3-

Main Riff

E----------------------------------------------------------------------
B------------------------------------5-5-5-5---------------------------
G-------------------5-5-5-5-5-5-5-5--5-5-5-5--3-3-3-3------------------
D--5-5-5-5-5-5-5-5--5-5-5-5-5-5-5-5--3-3-3-3--3-3-3-3--5-5-5-5-5-5-5-5-    -TIMES 5
A--5-5-5-5-5-5-5-5--3-3-3-3-3-3-3-3-----------1-1-1-1--5-5-5-5-5-5-5-5-
E--3-3-3-3-3-3-3-3-------------------------------------3-3-3-3-3-3-3-3-


Then chorus " And i want it all, thought i got it all"

E--------------------------------------------------------------------
B--------------------------------------------------------------------
G--X-X-X-5--8-8--10-10--X-X-X-5--8-8--10-10--X-X-X-5--8-8-10-10--
D--X-X-X-5--8-8--10-10--X-X-X-5--8-8--10-10--X-X-X-5--8-8-10-10--
A--X-X-X-3--6-6---8--8--X-X-X-3--6-6--10--8--X-X-X-3--6-6--8--8--
E--------------------------------------------------------------------

"And i found out where its all at"

E----------------------------------------------------------------
B----------------------------------------------------------------
G--8-8-8-8-10-10-10-10-------------------------------------------
D--8-8-8-6-10-10-10-10-------------------------------------------
A--6-6-6-6--8--8--8--8-------------------------------------------
E-----------------------h3-1-h3-1-h3-1-h3-1-h3-1-h3-1-h3-1-h3-1--

Then repeat main riff until interlude



Important: The song above is NOT stored on the Chordie server. The original song is hosted at www.xguitar.com. Chordie works as a search engine and provides on-the-fly formatting. Chordie does not index songs against artists'/composers' will. To remove this song please click here.

This song is displayed as text-only. Transposing and tuning is only available for chordpro-songs.

Login - add to songbook

Rating click stars to rate

Layout
Accuracy

SHARE PAGE  




You need to log in to post comments