Guitar Tabs, Chords and Lyrics


Ocean Soul    Nightwish



Band: Nightwish
Song: Ocean Soul
Album: Century Child
Transcribed by: Andrew Collyer
Contact: the_hauntedcrown@hotmail.com

Copyright (c) Century Media, 2002

TUNING: E A D G B E

Intro
------------
------------
------------
------------
-2-2-2-2-2--
-0-0-0-0-0--
 . . . . .

Riff 1
---------------------------------------------------------------
---------------------------------------------------------------
---------------------------------------------------------------
---------------------------------------------------------------
-2-2--2-2-----7-7--7-7-----7-7--7-7-----3-3--3-3-----5-5--5-5--
-0-0--0-0-----5-5--5-5-----5-5--5-5-----3-3--3-3-----5-5--5-5--
 . .  . .     . .  . .     . .  . .     . .  . .     . .  . .

Riff 2
-----------------------------------------------------------------------------
-----------------------------------------------------------------------------
-----------------------------------------------------------------------------
-----------------------------------------------------------------------------
-2-2--2-2-----2-2--2-2-----7--7-7-7--7--7-7-7--2--2-2-2--2--2-2-2--2-2-2--7--
-0-0--0-0-----0-0--0-0-----5--5-5-5--5--5-5-5--0--0-0-0--0--0-0-0--0-0-0--5--
 . .  . .     . .  . .

-------------------------
-------------------------
-------------------------
-------------------------
--7---2-2-2-2-2-2-2-2-2--
--5---0-0-0-0-0-0-0-0-0--
      . . . .

Riff 3
-----------------------------------------------------------------------------
-----------------------------------------------------------------------------
-----------------------------------------------------------------------------
-----------------------------------------------------------------------------
-2------5------3------5------5--------5---5---5---5---5-5-5-5-5-5-5-5-5-5-5--
-0------5------3------5------3--3-3-3-3-3-3-3-3-3-3-3-5-5-5-5-5-5-5-5-5-5-5--
                                . . .   .   .   .   . . . . . . . . . . . .

-------------------------------------------------------------
-------------------------------------------------------------
-------------------------------------------------------------
-----------------------------------------------------7--4----
-5-5-5-5-5-2-----2-----2---2---2---2-3-3-3-3-3-3-3-3-5--2----
-5-5-5-5-5-2-2-2-2-2-2-2-2-2-2-2-2-2-3-----3---3---3---------
 . . . . .   . .   . .   .   .   .     . .   .   .
Riff 1 x 1
Riff 2 x 1

Vocal/keyboard solo

Fill 1
--------
--------
--------
--------
-----2--
-00000--
 ....

Riff 3 x 3


Important: The song above is NOT stored on the Chordie server. The original song is hosted at www.xguitar.com. Chordie works as a search engine and provides on-the-fly formatting. Chordie does not index songs against artists'/composers' will. To remove this song please click here.

This song is displayed as text-only. Transposing and tuning is only available for chordpro-songs.

Login - add to songbook

Rating click stars to rate

Layout
Accuracy

SHARE PAGE  




You need to log in to post comments