Chordie logo


Passion and the Opera    Nightwish



Nightwish - Passion and the Opera
Submitted By: Ladicius Rellik
EMail: twoornone@hotmail.com


Intro:

guit 1
            p.m  . . . .              . . .       . . . .
e:-------------------------------------------------------------------------
B:-------------------------------------------------------------------------
G:---------|---------------------------------------------------------------
D:---------|--------------------6-7-9-7-6----------------------------------
A:-2/13\2/---7h9-9-9-9-9--7h9-9-----------9-7-7h9-9-9-9-9--7h9-9-7---------
E:-----------------------------------------------------------------9-8-7~--
       . . . .              . . .       . . . .
e:------------------------------------------------------------------
B:------------------------------------------------------------------
G:----------------------------------------------------------------|-  repeat three
D:--------------------6-7-9-7-6----------------------7p6---9p7-6--|-  times
A:-7h9-9-9-9-9--7h9-9-----------9-7-7h9-9-9-9-9--7h9-----9----------
E:------------------------------------------------------------------


guit 2
listen when guit 2 enters
                     p.m . . . . . . . .   . . . . .
e:---------------------------------------------------------
B:---------------------------------------------------------
G:-----------------2-4-------------------2------------2-4--
D:-4-4--4-4---4-4--2-4-------------------2------------2-4--
A:-4-4--4-4---4-4--0-2-------------------0------------0-2--
E:-2-2--2-2---2-2--------2-2-2-2-2-2-2-2----2-2-2-2-2------

p.m. . . . . . . .   . . . . .        . . . . . . . .    . . . . .
e:----------------------------------------------------------------------
B:----------------------------------------------------------------------
G:-----------------2------------2-4-------------------2------------2-4--
D:-----------------2------------2-4-------------------2------------2-4--
A:-----------------0------------0-2-------------------0------------0-2--
E:-2-2-2-2-2-2-2-2----2-2-2-2-2-------2-2-2-2-2-2-2-2----2-2-2-2-2------



Verse:

Princess of lust..

p.m. . .  . . . . . . .  . . .  . . . . . . .  . . .  . . . . . . .  . . .  . . . .
e:--------------------------------------------------------------------------------------
B:--------------------------------------------------------------------------------------
G:--------------------------------------------------------------------------------------
D:-------------------------------------------------------------------------------------- x2
A:---------------------------------------------5-5-5--5-5-5-5-5-5-5--4-4-4--4-4-4-4--2--
E:-2-2-2--2-2-2-2-2-2-2--2-2-2--2-2-2-2-2-2-2----------------------------------------0--


An Aphrodite..

p.m. . .  . . . . . . .  . . .  . . . . . . .  . . .  . . . . . . .  . . .  . . . .
e:--------------------------------------------------------------------------------------
B:--------------------------------------------------------------------------------------
G:--------------------------------------------------------------------------------------
D:-------------------------------------------------------------------------------------- x2
A:---------------------------------------------5-5-5--5-5-5-5-5-5-5--4-4-4--4-4-4-4--2--
E:-2-2-2--2-2-2-2-2-2-2--2-2-2--2-2-2-2-2-2-2----------------------------------------0--


Licks:

guit 1
	       p.m. .
e:----------------------------------------2-----5-7-9--9-7-5-4------
B:-----------------------2-3-5--5-3-2--------------------------5-2--
G:-6---6-4-2-1--2---------------------4-----------------------------
D:----------------2-2-2-----------------4---------------------------
A:------------------------------------------------------------------
E:------------------------------------------------------------------

guit 2
	       p.m. .
e:------------------------------------------5-------------------------
B:-----------------------7-9-10--10-9-7-5---------7-9-10--10-9-7-5----
G:-6---6-4-2-1--2-------------------------6------------------------6--
D:----------------2-2-2-----------------------------------------------
A:--------------------------------------------------------------------
E:--------------------------------------------------------------------


Verse:

Naked limbs reflecting from the moon..

p.m. . .  . . . . . . .  . . .  . . . . . . .  . . .  . . . . . . .  . . .  . . . .
e:--------------------------------------------------------------------------------------
B:--------------------------------------------------------------------------------------
G:--------------------------------------------------------------------------------------
D:-------------------------------------------------------------------------------------- x2
A:---------------------------------------------5-5-5--5-5-5-5-5-5-5--4-4-4--4-4-4-4--2--
E:-2-2-2--2-2-2-2-2-2-2--2-2-2--2-2-2-2-2-2-2----------------------------------------0--


An aphrodite..

p.m. . .  . . . . . . .  . . .  . . . . . . .  . . .  . . . . . . .  . . .  . . . .
e:--------------------------------------------------------------------------------------
B:--------------------------------------------------------------------------------------
G:--------------------------------------------------------------------------------------
D:-------------------------------------------------------------------------------------- x2
A:---------------------------------------------5-5-5--5-5-5-5-5-5-5--4-4-4--4-4-4-4--2--
E:-2-2-2--2-2-2-2-2-2-2--2-2-2--2-2-2-2-2-2-2----------------------------------------0--


Licks:

guit 1
	       p.m. .
e:----------------------------------------2-----5-7-9--9-7-5-4------
B:-----------------------2-3-5--5-3-2--------------------------5-2--
G:-6---6-4-2-1--2---------------------4-----------------------------
D:----------------2-2-2-----------------4---------------------------
A:------------------------------------------------------------------
E:------------------------------------------------------------------

guit 2
	       p.m. .
e:------------------------------------------5-------------------------
B:-----------------------7-9-10--10-9-7-5---------7-9-10--10-9-7-5----
G:-6---6-4-2-1--2-------------------------6------------------------6--
D:----------------2-2-2-----------------------------------------------
A:--------------------------------------------------------------------
E:--------------------------------------------------------------------



Riff:

p.m. . . . . . . .    . . . . .
e:-----------------------------------
B:-----------------------------------
G:-----------------------------------
D:-----------------2------------2-4-- x2
A:-----------------0------------0-2--
E:-0-2-0-2-0-2-0-2----0-2-0-2-0------


"Intro Riff"
 p.m     . . . .              . . .       . . . .
e:-----------------------------------------------------------------
B:-----------------------------------------------------------------
G:----------------------3-4-6-4-3----------------------------------
D:---4h6-6-6-6-6--4h6-6-----------6-4-4h6-6-6-6-6--4h6-6-4---------
A:---------------------------------------------------------6-5-4~--
E:-\---------------------------------------------------------------

       . . . .              . . .       . . . .
e:----------------------------------------------------------------
B:----------------------------------------------------------------
G:--------------------3-4-6-4-3----------------------3p4---6p4-3--
D:-4h6-6-6-6-6--4h6-6-----------6-4-4h6-6-6-6-6--4h6-----6--------
A:----------------------------------------------------------------
E:----------------------------------------------------------------



Oh, oh oh...

Bass + strings first..


Listen when guitar enters

     p.m . . .  . . . . . . .  . . .  . . . . . . .
e:----------------------------------------------------
B:----------------------------------------------------
G:------*------------------------------------------*--
D:------*------------------------------------------*--
A:----------------------------------------------------
E:-/12\--0-0-0--0-0-0-0-0-0-0--0-0-0--0-0-0-0-0-0-0---

p.m. . .  . . . . . . .  . . .  . . . . . . .
e:---------------------------------------------
B:---------------------------------------------
G:---------------------------------------------
D:---------------------------------------------
A:-0-0-0--0-0-0-0-0-0-0--0-0-0--0-0-0-0-0-0-0--
E:---------------------------------------------

p.m . . .  . . . . . . .  . . .  . . . . . . .
e:------------------------------------------------------
B:------------------------------------------------------
G:-----------------------listen for right rhythm here..-
D:------------------------------------------------------
A:------------------------------------------------------
E:-0-0-0--0-0-0-0-0-0-0--0-0-0--0-0-0-0-0-0-0-----------

p.m  . .   . .   . .   . .   . .   . .   . .      . .   . .   . .   . .   . .   . . . .
e:---------------------------------------------------------------------------------------
B:---------------------------------------------------------------------------------------
G:---------------------------------------------------------------------------------------
D:-6-----6-----6-----6-----6-----6-----6-----6--2-----2-----2-----2-----2-----2----------
A:-4-4-4-4-4-4-4-4-4-4-4-4-4-4-4-4-4-4-4-4-4-4--0-0-0-0-0-0-0-0-0-0-0-0-0-0-0-0-0-0-0-2--
E:---------------------------------------------------------------------------------------

     . .   . .   . .   . .   . .   . .   . .
e:---------------------------------------------------------
B:---------------------------------------------------------
G:---------------------------------------------------------
D:-6-----6-----6-----6-----6-----6-----6-----6--7--9--11---
A:-4-4-4-4-4-4-4-4-4-4-4-4-4-4-4-4-4-4-4-4-4-4--5--7--9----
E:---------------------------------------------------------


p.m. . .  . . . . . . .  . . .  . . . . . . .  . . .  . . . . . . .  .  . . .
e:--------------------------------------------------------------------------------
B:-----------------------------------------------------------------------------5-- not sure about
G:-----------------------------------------------------------------------------4-- this chord...
D:-----------------------------------------------------------------------------2-- (may be some
A:-------------------------------------------------------------------------------- wha-wha effect..)
E:-0-0-0--0-0-0-0-0-0-0--0-0-0--0-0-0-0-0-0-0--0-0-0--0-0-0-0-0-0-0--0--0-0-0-----


   p.m. . .  . . . . . . .  . . .  . . . . . . .
e:--------------------------------------------------
B:--------------------------------------------------
G:--*--------------------------------------------*--
D:--*--------------------------------------------*--
A:--------------------------------------------------
E:----0-0-0--0-0-0-0-0-0-0--0-0-0--0-0-0-0-0-0-0----


   p.m. . .  . . . . . . .  . . .  . . . . . . .  . . .  . . . . . . .  . . .  . . . . . . .
e:----------------------------------------------------------------------------------------------
B:----------------------------------------------------------------------------------------------
G:--*----------------------------------------------------------------------------------------*--
D:--*----------------------------------------------------------------------------------------*--
A:----4-4-4--4-4-4-4-4-4-4--4-4-4--4-4-4-4-4-4-4--0-0-0--0-0-0-0-0-0-0--0-0-0--0-0-0-0-0-0-0----
E:----------------------------------------------------------------------------------------------


e:----------------------------
B:----------------------------
G:--------6----2----6----2----
D:-2------6----2----6----2----  x2
A:-2------4----0----4----0----
E:-0--------------------------

fade out..





Tablature explanation:
/ = slide up
\ = slide down
h = hammer on
p = pull off
p.m = palm muted
~ = vibrato
--*---*--


Important: The song above is NOT stored on the Chordie server. The original song is hosted at www.xguitar.com. Chordie works as a search engine and provides on-the-fly formatting. Chordie does not index songs against artists/composers will. To remove this song please click here.

This song is displayed as text-only. Transposing and tuning is only available for chordpro-songs.

Login - add to songbook

Rating click stars to rate

Layout
Accuracy

SHARE PAGE  




You need to log in to post comments