Chordie logo


Deep Silent Complete    Nightwish



---8-7-5-3--------------------8-12-10-------8--13-15-13-12-10-------------------
----------3-5/10--10-10-8-3-5---------10-12-------------------------------------
--------------------------------------------------------------------------------
--------------------------------------------------------------------------------
--------------------------------------------------------------------------------
--------------------------------------------------------------------------------

during this melodie:
--------------------------------------------------------------------------------
--------------------------------------------------------------------------------
--5---------------5--5-5--7--7-7------------------7--7-7--5--5-5------------5-4-
--5-5-7--3-5-7----5--5-5--7--7-7--7--7-7--7--7-7--7--7-7--5--5-5--5--5-5--5-5-4-
--3-5-7--3-5-7--3333333355555555--7--7-7--7--7-75555555533333333--5--5-5--5-3-2-
----3-5--1-3-5------------------5555555555555555----------------333333333333----
p.m.             xx xx x xx xx x xx xx x xx xx x xx xx x xx xx x xx xx x xx x


after 1st verse:
--------------------------------------------------------------------------------
--------------------------------------------------------------------------------
-----5--5-5---------------------------------------------------------------------
-----5--5-5--5--5-5--7--7-7--7--7-7--3--3-3--5--5-5--7--7-7--7--7-7-------------
---33333333--5--5-5--7--7-7--7--7-7--3--3-3--5--5-5--7--7-7--7--7-7-------------
-----------33333333555555555555555511111111333333335555555555555555-------------
   xx xx x xx xx x xx xx x xx xx x xx xx x xx xx x xx xx x xx xx x

--------------------------------------------------------------------------------
--------------------------------------------------------------------------------
-----5--5-5--7--7-7-----------------7-5---5-4-----------------------------------
-----5--5-5--7--7-7--7--7-7--7--7-7-7-5-5-5-4-----------------------------------
---3333333355555555--7--7-7--7--7-7-5-3-5-3-2-----------------------------------
-------------------5555555555555555-----3---------------------------------------
   xx xx x xx xx x xx xx x xx xx x


near the end, theres this riff (2nd guitar does the chords):

   Dm       C         Dm         G
--------------------------------------------------------------------------------
--------------------------------------------------------------------------------
--------------------------------------------------------------------------------
--------------------------------------------------------------------------------
---5-7/8-8-----------5-7/8-8--7-5-----------------------------------------------
------------8-7-5-1---------------3---------------------------------------------

Outro:
--------------------------------------------------------------------------------
--------------------------------------------------------------------------------
-----5--5-5---------------------------------------------------------------------
-----5--5-5--5--5-5--7--7-7--7--7-7--3--3-3--5--5-5--7--7-7--7--7-7-------------
---33333333--5--5-5--7--7-7--7--7-7--3--3-3--5--5-5--7--7-7--7--7-7-------------
-----------33333333555555555555555511111111333333335555555555555555-------------
   xx xx x xx xx x xx xx x xx xx x xx xx x xx xx x xx xx x xx xx x

--------------------------------------------------------------------------------
--------------------------------------------------------------------------------
-----5--5-5--7--7-7------------------7--7-7--5--5-5------------5-4--------------
-----5--5-5--7--7-7--7--7-7--7--7-7--7--7-7--5--5-5--5--5-5--5-5-4--------------
---3333333355555555--7--7-7--7--7-75555555533333333--5--5-5--5-3-2--------------
-------------------5555555555555555----------------333333333333-----------------


Important: The song above is NOT stored on the Chordie server. The original song is hosted at www.xguitar.com. Chordie works as a search engine and provides on-the-fly formatting. Chordie does not index songs against artists/composers will. To remove this song please click here.

This song is displayed as text-only. Transposing and tuning is only available for chordpro-songs.

Login - add to songbook

Rating click stars to rate

Layout
Accuracy

SHARE PAGE  




You need to log in to post comments