Guitar Tabs, Chords and Lyrics


Gave Up   Nine Inch Nails



GAVE UP

Chorus
"It took you..."
E--------------------------
B--------------------------
G-------2----------5-4-2---
D-2-----2-----4----5-4-2-4-
A-2-----0-----4----3-2-0-4-
E-0-----------2----------2-

"Smashed up my sanity..."
E--------------------------
B--------------------------
G-------2--4-------5-4-2---
D-2--4--2--4--4----5-4-2-4-
A-2--4--0--2--4----3-2-0-4-
E-0--2--------2----------2-


Important: The song above is NOT stored on the Chordie server. The original song is hosted at www.xguitar.com. Chordie works as a search engine and provides on-the-fly formatting. Chordie does not index songs against artists'/composers' will. To remove this song please click here.

This song is displayed as text-only. Transposing and tuning is only available for chordpro-songs.

Login - add to songbook

Rating click stars to rate

Layout
Accuracy

SHARE PAGE  




You need to log in to post comments