Guitar Tabs, Chords and Lyrics


About A Girl    Nirvana



NIRVANA - Bleach
Tabbed by Kieren Hudson.
if anyone has comments, or suggestions mail me at kieren@mail.org

TABULATURE DEFINITION
)     =  bend
/     =  slide up
\     =  slide down
~~    =  vibrato
PM    =  palm mute
)r    =  bend and release 
^     =  hammeron/pulloff
x/x   =  pickscrape
*     =  uncontrolled feedback
NH    =  natural harmonic

About a Girl
 intro/verse
the chords are Em and G but the struming roughly is
e--------------3-----------------------3---------------------- 3-------------         
b--------------0--0--0-----0-----------0--0--0-----0-----------0--0--0-------
g--------0--------0--0-----0-----0--------0--0-----0-----0--------0--0-------
d--2--2--0--------0--0--2-----2--0--------0--0--2-----2--0--------0--0-------
a--2--2--------------0--2-----2--------------0--2-----2--------------0-------
e--0--0-----3-----------0-----0-----3-----------0-----0-----3----------------
 
e----------------3-----------------------------------------------------------     
b----0-----------0--0--0-----------------------------------------------------
g----0-----0--------0--0-----------------------------------------------------
d-2-----2--0--------0--0-----------------------------------------------------
a-2-----2--------------0-----------------------------------------------------
e-0-----0-----3--------------------------------------------------------------

 chorus
e----------------------------------------------------------------------------
b--6--6--6----------------------------------------6--6--6--------------------
g--6--6--6-----6--6--(0)---------------------(0)--6--6--6----6--6--(0)-------                          
d--6--6--6-----6--6--(0)---4--4-----4---4-4--(0)--6--6--6----6--6--(0)-------
a--4--4--4-----------------4--4--x--4---4-4-------4--4--4--------------------
e-----------4--------------2--2--x--2---2-2----------------4-----------------

e----------------------------------------------------------------------------
b----------------------------------------------------------------------------
g----------------------------------------------------------------------------
d--4--4-----4--4-4-----------------------------------------------------------
a--4--4-----4--4-4-----------------------------------------------------------
e--2--2--0--2--2-2-----------------------------------------------------------

 play that twice
e--0--0--0-----------------0--0--0-------------------------------------------
b--0--0--0------/9--9--9---2--2--2---5--5--5---0-----------------------------
g--x--x---------/9--9--9---2--2--2---5--5--5---0-----------------------------
d--2--2---------/9--9--9---2-----2---5--5--5---0-----------------------------
a--2--2---------/7--7--7---0-----2---3--3--3---0-----------------------------
e--0--0----------------------------------------------------------------------                  

 solo
e----------------------------------------------------------------------------
b---------------------------9--9/12-------12---------------------------------
g-------------------7--7/9--9--9/12--12---12---------------------------------
d-------------5--7--7--7/9--9--9/12--12---12---------------------------------
a------5--7------------------------------------------------------------------
e--0------------------------------------------------------------------------- 
 
play that 4 times.


Important: The song above is NOT stored on the Chordie server. The original song is hosted at www.xguitar.com. Chordie works as a search engine and provides on-the-fly formatting. Chordie does not index songs against artists'/composers' will. To remove this song please click here.

This song is displayed as text-only. Transposing and tuning is only available for chordpro-songs.

Login - add to songbook

Rating click stars to rate

Layout
Accuracy

SHARE PAGE  




You need to log in to post comments