Chordie logo


Mr Moustache   Nirvana



NIRVANA - Bleach
Tabbed by Kieren Hudson.
if anyone has comments, or suggestions mail me at kieren@mail.org

TABULATURE DEFINITION
)     =  bend
/     =  slide up
\     =  slide down
~~    =  vibrato
PM    =  palm mute
)r    =  bend and release 
^     =  hammeron/pulloff
x/x   =  pickscrape
*     =  uncontrolled feedback
NH    =  natural harmonic

Mr Moustache
 intro
e----------------------------------------------------------------------------
b----------------------------------------------------------------------------
g----------------------------------------------------------------------------                                                            
d----------------------------------------------------------------------------
a-----2-----------------------1----------------------------------------------
e--3-----3--2--1--0--1--2--3-----3--2--1--0--1--2----------------------------

play that 4 times, then
 verse
e----------------------------------------------------------------------------
b----------------------------------------------------------------------------
g--0--0---------------0--0---------------0--0---------------0--0-------------                  
d--0--0---------------0--0---------------0--0---------------0--0-------------
a--x--x---------------x--x---------------x--x---------------x--x-------------
e--3--3--0--1--2--2---3--3--0--1--2--2---3--3--0--1--2--2---3--3--0--1--2--2-
         PM--------         PM--------         PM--------         PM--------
 
 play that 3 times, then
e----------------------------------------------------------------------------
b----------------------------------------------------------------------------
g----------------------------------------------------------------------------                                                            
d----------------------------------------------------------------------------
a-----2-----------------------1----------------------------------------------
e--3-----3--2--1--0--1--2--3-----3--2--1--0--1--2----------------------------

e----------------------------------------------------------------------------
b----------------------------------------------------------------------------
g----------------------------------------------------------------------------                                                            
d----------------------------------------------------------------------------
a-----2-----------------------1----------------------------------------------
e--3-----3--2--1--0--1--2--3-----3--2--1--0--1--2----------------------------

e----------------------------------------------------------------------------
b----------------------------------------------------------------------------
g--0--0---------------0--0---------------0--0---------------0--0-------------                  
d--0--0---------------0--0---------------0--0---------------0--0-------------
a--x--x---------------x--x---------------x--x---------------x--x-------------
e--3--3--0--1--2--2---3--3--0--1--2--2---3--3--0--1--2--2---3--3--0--1--2--2-
         PM--------         PM--------         PM--------         PM--------

e----------------------------------------------------------------------------
b----------------------------------------------------------------------------
g--0--0---------------0--0---------------0--0---------------0--0-------------                  
d--0--0---------------0--0---------------0--0---------------0--0-------------
a--x--x---------------x--x---------------x--x---------------x--x-------------
e--3--3--0--1--2--2---3--3--0--1--2--2---3--3--0--1--2--2---3--3--0--1--2--2-
         PM--------         PM--------         PM--------         PM--------

 chorus
e----------------------------------------------------------------------------
b--------5--5--5------------------------5--5--5------------------------------
g--4--x--5--5--5------------------4--x--5--5--5------------------------------                    
d--4--x--5--5--5---5-5-5-5-5-5-5--4--x--5--5--5---5-5-5-5-5------------------     
a--2--x--3--3--3---5-5-5-5-5-5-5--2--x--3--3--3---5-5-5-5-5------------------
e------------------3-3-3-3-3-3-3------------------3-3-3-3-3------------------

e----------------------------------------------------------------------------
b--------5--5--5------------------------5--5--5------------------------------
g--4--x--5--5--5------------------4--x--5--5--5------------------------------                    
d--4--x--5--5--5---5-5-5-5-5-5-5--4--x--5--5--5---5-5-5-5-5------------------     
a--2--x--3--3--3---5-5-5-5-5-5-5--2--x--3--3--3---5-5-5-5-5------------------
e------------------3-3-3-3-3-3-3------------------3-3-3-3-3------------------
 
e----------------------------------------------------------------------------
b----------------------------------------------------------------------------
g--------------------------------5-5-5-5-5/8-8-8-8-8-8-8-8-------------------
d--------------------------------5-5-5-5-5/8-8-8-8-8-8-8-8-------------------
a--5--7-7--5/7--7--7-7--5/7--7---3-3-3-3-3/6-6-6-6-6-6-6-6-------------------
e--3--5-5--3/5--5--5-5--3/5--5-----------------------------------------------

e----------------------------------------------------------------------------
b----------------------------------------------------------------------------
g--------------------------------5-5-5-5-5/8-8-8-8-8-8-8-8-------------------
d--------------------------------5-5-5-5-5/8-8-8-8-8-8-8-8-------------------
a--5--7-7--5/7--7--7-7--5/7--7---3-3-3-3-3/6-6-6-6-6-6-6-6-------------------
e--3--5-5--3/5--5--5-5--3/5--5-----------------------------------------------


Important: The song above is NOT stored on the Chordie server. The original song is hosted at www.xguitar.com. Chordie works as a search engine and provides on-the-fly formatting. Chordie does not index songs against artists/composers will. To remove this song please click here.

This song is displayed as text-only. Transposing and tuning is only available for chordpro-songs.

Login - add to songbook

Rating click stars to rate

Layout
Accuracy

SHARE PAGE  




You need to log in to post comments