Chordie logo


Heart-Shaped Box   Nirvana



Artist: Nirvana
Album: In Utero
Track: 3
Title: Heart Shaped Box
Instrument: Guitar

Tuning: Drop D (DADGBE)
Intro / Verse

 -----------------------------------------------
 -----------------------------------------------
 ------2----------------------------------------
 ----2---2---------3-------------0-----0--------
 --0------------3-----3-------0-----0-----0-----
 ------------3-------------0--------------------

 -----------------------------------------------
 -----------------------------------------------
 -------2---------------------------------------
 -----2---2-------3------------4--4----4-----4-0
 --0------------3-------------------0----3--3---
 -------------3-------3---0---------------------

Chorus (distortion)

 ----------------------------------------------- 
 ----------------------------------------------- 
 --2--2----4^-------------4^--------------------
 --2--2------------3--3------------4--4---4---4-
 --0--0------------3--3-----------------0---3---
 ------------------3--3----------0--------------
         HEY!            WAIT! 

Solo (flanger, i think)

 ----------------------------------------------- 
 ------8^-------6^-------5^----3--1-0----------- 
 -----------------------------------------------
 --7--------5--------3--------------------------
 -----------------------------------------------
 ----------------------------------------------- x 2

 -----------------------------------------------
 -----------------------------------------------
 --2-----------------2--------------------------
 --2-----------------2--------------------------
 --0-----------------0--------------------------
 -----------------------------------------------
         ^flanger off
complaints? commments?
spam? just want a friend?
mail me..

gonigle@your-house.com

LYRICS: 
she eyes me like a pisces when I am weak 
i've been locked inside you heart-shaped box four weeks 
i've been drawn into your magnet tar pit trap 
i wish i could eat your cancer when you turn black 

hey 
wait 
i've got a new complaint 
forever in debt to your priceless advice 

meat-eating orchids forgive no one just yet 
cut myself on angel hair and babys breath 
broken hymen of you highness i'm left black 


Important: The song above is NOT stored on the Chordie server. The original song is hosted at www.xguitar.com. Chordie works as a search engine and provides on-the-fly formatting. Chordie does not index songs against artists/composers will. To remove this song please click here.

This song is displayed as text-only. Transposing and tuning is only available for chordpro-songs.

Login - add to songbook

Rating click stars to rate

Layout
Accuracy

SHARE PAGE  




You need to log in to post comments

traymcbride (report)

To match the recording, you need to tune all strings down another half step.