Chordie logo

Aero Zeppelin   Nirvana



NIRVANA - INCESTICIDE

Tabbed by Kieren Hudson.
if anyone has comments, or suggestions mail me at kieren@mail.org

TABULATURE DEFINITION
)     =  bend
/     =  slide up
\     =  slide down
~~    =  vibrato
x/x   =  pickscrape
*     =  uncontrolled feedback

Aero Zeppelin
Tune Down 1/2 a step
 intro
e-----0--0-----------------------0-----------0-----0--0----------------------
b-----------3-----3-----------3-----3-----3--------------3-----3-------------
g--------------3-----3--------3--------3--------------------3-----3----------
d----------------------------------------------------------------------------
a--2--------------------2--2--------------------2----------------------------
e--0--------------------0--0--------------------0----------------------------

e--------0--0----------------------------------------------------------------
b--------------3-----3-------------------------------------------------------
g-----------------3----------------------------------------------------------
d----------------------------------------------------------------------------
a--2--2----------------------------------------------------------------------
e--0--0----------------------------------------------------------------------

 verse
e--------0--0-----------0-----------0-------0--------------------------------
b--------------3-----3-----------3-----3----3--------------------------------
g-----------------3--------------3--------3---3------------------------------
d----------------------------------------------------------------------------
a--2--2--------------------2--2----------------------------------------------
e--0--0--------------------0--0----------------------------------------------

e-----------0--------0--------------0--------0-------------------------------
b--------3-----3--3--3--3--------3--------3--3--3----------------------------
g--------3--------3-----3--------------3--3-----3----------------------------
d----------------------------------------------------------------------------
a--2--2--------------------2--2----------------------------------------------
e--0--0--------------------0--0----------------------------------------------

e-----------0--------0--------------0--------0-------------------------------
b--------3--3--3--3--3--3--------3--------3----------------------------------
g--------3-----3--3-----3--------3-----3--------3----------------------------
d----------------------------------------------------------------------------
a--2--2--------------------2--2----------------------------------------------
e--0--0--------------------0--0----------------------------------------------

e--------0--------0----------------------------------------------------------
b-----3--------3-----------3--3--------3--3--------3--3--------3--3--3-------
g-----3-----3--------3-----------3-----------3-----------3-----3-----3-------
d----------------------------------------------------------------------------
a--2--------------------2-----------2-----------2-----------2-----------0----
e--0--------------------0-----------0-----------0-----------0-----------0----

 then
e----------------------------------------------------------------------------
b----------------------------------------------------------------------------
g----------------------------------------------------------------------------
d-----2----------------------------------------------------------------------
a--2-----2--2--2/5--5\--2--2\1-----1-----2--2--2--2/5--5\--2--1--1-----1-----
e--0--------------------0-------3-----3--0-----------------0--------3-----3--

e----------------------------------------------------------------------------
b----------------------------------------------------------------------------
g----------------------------------------------------------------------------
d----------------------------------------------------------------------------
a--2--2--2--2/5--5\--2--2--1--1-----1-----2--2--2--2/5--5\-----2--1-----1----
e--0-----------------0-----------3-----3--0-----------------0--------3-----3-

 then
e----------------------------------------------------------------------------
b----------------------------------------------------------------------------
g---------------------7--7--7--9--9\5----------------------------------------
d--7/9--9--9--9\7--x--7--7--7--9--9\5----------------------------------------
a--7/9--9--9--9\7--x--5--5--5--7--7\5--3--------2--------1/2------)----------
e--5/7--7--7--7\5--x----------------------4--0-----3--3-------0--1-----------

 play that 4 times, then
e----------------------------------------------------------------------------
b----------------------------------------------------------------------------
g----------------------------------------------------------------------------
d----------------------------------------------------------------------------
a--3--------2--3--------1---------)--3--------2--------1/2-------------------
e-----4--0--------3--0-----2--0--1------4--0-----3--0-------0--1--1--0-------

e----------------------------------------------------------------------------
b----------------------------------------------------------------------------
g----------------------------------------------------------------------------
d----------------------------------------------------------------------------
a--3--------2/3-----1---------)----------------------------------------------
e-----4--0-------0-----2--0--1-----------------------------------------------

e----------------------------------------------------------------------------
b----------------------------------------------------------------------------
g----------------------------------------------------------------------------
d----------------------------1-----------------------------------------------
a--------1---)---)-----------------1---)--)----------1-----1---)--)----------
e--0--0-----4---4---0--0--4-----0-----4--4--0--0--4-----0-----4--4--0--0-----

e----------------------------------------------------------------------------
b----------------------------------------------------------------------------
g--1-----1-------------------------------------------------------------------
d--1-----1------------------------1------------------------------------------
a-----2--------1---)--)------------------------------------------------------
e-----------0-----4--4---0--0--4---------------------------------------------

 then
e----------------------------------------------------------------------------
b----------------------------------------------------------------------------
g-------3--3-------------1----3--3--1--1----------1----3--3--1--1------------
d--2----3--3--2----5--5--2----3--3--2--2----5--5--2----3--3--2--2----5--5----
a--2----1--1--2----5--5--2----1--1--2--2----5--5--2----1--1--2--2----5--5----
e--0----------0----3--3--0----------0--0----3--3--0----------0--0----3--3----

e---------------------------------------------------------------------------- 
b----------------------------------------------------------------------------
g--1----3--3--1--------------1------(1)----------(1)-------------------------            
d--2----3--3--2----5---------2------(2)----------(2)-------------------------          
a--2----1--1--2----5---------2------(2)----------(2)-----\11------0--0-------           
e--0----------0----3---0-----0------(0)----------(0)--------------0--0-------       


 solo
e----)-----------------------------------------------------------------------
b--11-11-(11)-(11)-11---------)----------------------------------------------
g----------------------3--3--3--1--3--1-----------0--------------------------
d----------------------------------------2--0--2-----2/0---------------------
a---------------------------------------------------------0------------------
e------------------------------------------------------------4--(4)/-0--4--4-

e-------------------x/--x--x--x--x-------------------------------------------
b-------------------x/-------------------------------------------------------
g----------------------------------------------------------------------------
d----------------------------------------------------------------------------
a---)-------------------------------7--7/9--9--9--9\7--9/10--9--10-10/12-----
e--4--(4)--4--4--0-----------------------------------------------------------

e------------------------------------)-------------0-----0--0-10--0--3-------
b-----------------12-14---------12-15~~~~-(15)-16-----0-----------------2--2-
g-----------------12------------12-15~~~~-(15)-16----------------------------
d-----------12-14-------14-x-14----------------------------------------------
a--10-12/14-12-14------------------------------------------------------------
e----------------------------------------------------------------------------

e--------4\0-----3/0--0--5--3--0--0------------------------------------------
b--0--1-------0----------------------3/0--3--x---)---------------------------
g-----------------------------------------------2----------------------------
d--------------------------------------------------2-------------------------
a------------------------------------------------------)--------------5------
e-----------------------------------------------------3--0--(0)--4/5---------

e--------------------------------------------------------------------)---)---
b------------------------------------------------7-----------------10--10----
g---------------------------------------------7--7-(7)\9--9--9--9------10----
d----------------------------7/9--9--9--9--9---------------------------------
a------------5--4--5/7--7/9--------------------------------------------------
e--5/7--5/7------------------------------------------------------------------

e----------------------------------------------------------------------------
b--(10)-(10)---(12)----------------------------------------------------------
g--(10)------10-10-10\-------------------------------------------------------
d----------------------------------------------------------------------------
a----------------------------------------------------------------------------
e----------------------------------------------------------------------------

 outro
e--------0-----------------0--0-----------0-----0--0-------------------------
b-----0-----0-----3--------3-----3-----3--------3-----3--3-------------------
g--------------3-----3--------------3-----------------------3----------------
d----------------------------------------------------------------------------
a--2--------------------2--------------------2-------------------------------
e--0--------------------0--------------------0-------------------------------

e-----0--0-----------(0)-----------------------------------------------------
b-----------3-----3----------------------------------------------------------
g--------------3-------------------------------------------------------------
d----------------------------------------------------------------------------
a--2-------------------------------------------------------------------------
e--0-------------------------------------------------------------------------


Important: The song above is NOT stored on the Chordie server. The original song is hosted at www.xguitar.com. Chordie works as a search engine and provides on-the-fly formatting. Chordie does not index songs against artists/composers will. To remove this song please click here.

This song is displayed as text-only. Transposing and tuning is only available for chordpro-songs.

Login - add to songbook

Rating click stars to rate

Layout
Accuracy

SHARE PAGE  

You need to log in to post comments