Chordie logo


Big Long Now   Nirvana



NIRVANA - INCESTICIDE

Tabbed by Kieren Hudson.
if anyone has comments, or suggestions mail me at kieren@mail.org

TABULATURE DEFINITION
)     =  bend
/     =  slide up
\     =  slide down
~~    =  vibrato
x/x   =  pickscrape
*     =  uncontrolled feedback

Big Long Now
 intro (palm muted throughout)
e----------------------------------------------------------------------------
b----------------------------------------------------------------------------
g--------------------0-----------------------0-------------------------------
d-----3-----3-----3-----3-----3-----3-----3-----3----------------------------
a--4-----5-----4-----------4-----5-----4-------------------------------------
e----------------------------------------------------------------------------
   
e----------------------------------------------------------------------------
b----------------------------------------------------------------------------
g--------------------0-----------------------0-------------------------------
d-----3-----3-----3-----3-----3-----3-----3-----3----------------------------
a--4-----5-----4-----------4-----5-----4-------------------------------------
e----------------------------------------------------------------------------

   
e----------------------------------------------------------------------------
b--------------------0--0--0----------------------0--0--0--------------------
g--------------------0--0--0----------------------0--0--0--------------------
d-----3-----3-----3--------------3-----3------3------------------------------
a--4-----5-----4--------------4-----5-----4----------------------------------
e----------------------------------------------------------------------------

 verse
e----------------------------------------------------------------------------
b----------------------------------------------------------------------------
g--------------------0-------------------------------------------------------
d-----3-----3-----3-----3----------------------------------------------------
a--4-----5-----4-------------------------------------------------------------
e---------------------------------------------------------------------------- 
 
 play that 10 times, then
e----------------------------------------------------------------------------
b----------------------------------------------------------------------------
g--------0----------0-----------0--------0-----------------------------------
d-----0----0-----0-----0-----2-----------------------------------------------
a--1----------1-----------0--------6--6-----6--------------------------------
e----------------------------------4--4-----4--------------------------------
 
 after 2nd time this is played, play
e----------------------------------------------------------------------------
b----------------------------------------------------------------------------
g--------------------0-----------------------0-------------------------------
d-----3-----3-----3-----3-----3-----3-----3-----3----------------------------
a--4-----5-----4-----------4-----5-----4-------------------------------------
e----------------------------------------------------------------------------

 then, chorus
e----------------------------------------------------------------------------
b----------------------------------------------------------------------------
g--7--7--7--6--6--6--6--6--6--6--6--6--6--6--6-------------------------------
d--7--7--7--6--6--6--6--6--6--6--6--6--6--6--6-------------------------------
a--5--5--5--4--4--4--4--4--4--4--4--4--4--4--4-------------------------------
e----------------------------------------------------------------------------

e----------------------------------------------------------------------------
b----------------------------------------------------------------------------
g--7--7--7--6--6--6--6--6--6--6--6-------------------------------------------
d--7--7--7--6--6--6--6--6--6--6--6--5--5--5--5-------------------------------
a--5--5--5--4--4--4--4--4--4--4--4--5--5--5--5-------------------------------
e-----------------------------------3--3--3--3-------------------------------

e----------------------------------------------------------------------------
b----------------------------------------------------------------------------
g--7--7--7--6--6--6--6--6--6--6--6--6--6--6--6-------------------------------
d--7--7--7--6--6--6--6--6--6--6--6--6--6--6--6-------------------------------
a--5--5--5--4--4--4--4--4--4--4--4--4--4--4--4-------------------------------
e----------------------------------------------------------------------------

e----------------------------------------------------------------------------
b----------------------------------------------------------------------------
g--7--7--7--6--6--6--6--6--6--6--6-------------------------------------------
d--7--7--7--6--6--6--6--6--6--6--6--5--5--5--5-------------------------------
a--5--5--5--4--4--4--4--4--4--4--4--5--5--5--5-------------------------------
e-----------------------------------3--3--3--3-------------------------------

 play that 2 times, then
e----------------------------------------------------------------------------
b----------------------------------------------------------------------------
g----------------------------------------------------------------------------
d--5--5--5--5--4--4--4--4--4--4--4--4----------------------------------------
a--5--5--5--5--4--4--4--4--4--4--4--4----------------------------------------
e--3--3--3--3--2--2--2--2--2--2--2--2----------------------------------------

e----------------------------------------------------------------------------
b----------------------------------------------------------------------------
g----------------------------------------------------------------------------
d--3--3--3--3--3--3--3--3--3--3--3--3--3--3--3--3----------------------------
a--3--3--3--3--3--3--3--3--3--3--3--3--3--3--3--3----------------------------
e--1--1--1--1--1--1--1--1--1--1--1--1--1--1--1--1----------------------------

 outro
e----------------------------------------------------------------------------
b----------------------------------------------------------------------------
g--------------------------------------------0-------------------------------
d-----3-----3-----3-----3-----3-----3-----3-----3----------------------------
a--4-----5-----4-----5-----4-----5-----4-------------------------------------
e----------------------------------------------------------------------------

e----------------------------------------------------------------------------
b----------------------------------------------------------------------------
g--------------------------------------------0-------------------------------
d-----3-----3-----3-----3-----3-----3-----3-----3----------------------------
a--4-----5-----4-----5-----4-----5-----4-----------4-------------------------
e----------------------------------------------------------------------------


Important: The song above is NOT stored on the Chordie server. The original song is hosted at www.xguitar.com. Chordie works as a search engine and provides on-the-fly formatting. Chordie does not index songs against artists/composers will. To remove this song please click here.

This song is displayed as text-only. Transposing and tuning is only available for chordpro-songs.

Login - add to songbook

Rating click stars to rate

Layout
Accuracy

SHARE PAGE  




You need to log in to post comments