Chordie logo


Drain You   Nirvana



Drain You
  By Kurt Cobain 
  Tune down your guitar one whole step
  
  rhy.fig 1
  ------------------------------------------------              
  ------------------------------------------------
  --4--4---4/8--8--8----------------6--6--6---0---              
  --4--4---4/8--8--8---0--6--6---0--6--6--6---0---
  --2--2---2/6--6--6---0--6--6---0--4--4--4---0---              
  ---------------------0--4--4---0----------------

  w/rhy.fig. 1  *
  One baby to another says I'm lucky to meet you.  
  I don't care what you think unless it is about me.
  It is now my duty to completely drain you.
  A travel through a tube and end up in your infection.
  
  *Note:here you obviously have to put distortion after 
  "...to meet you"

  fill A   (w/dist)
  ------------------------------------------------              
  ------------------------------------------------
  ------------------------------------------------              
  --4---4---0---2--2------------------------------
  --4---4---0---2--2------------------------------              
  --2---2---0---0--0------------------------------
  
   rhy.fig 2  (w/dist)
  ------------------------------------------------              
  ------------------------------------------------
  --6--6--6--6--6---------------------------------              
  --6--6--6--6--6----0---2--2--2--2---------------
  --4--4--4--4--4----0---2--2--2--2---------------              
  -------------------0---0--0--0--0---------------
  
  w/fill A ,first then rhy.fig. 2
  Chew meat for you,
  pass it back and forth.
  In a passionate kiss,
  from my mouth to yours

  'cause I   like     you     (w/dist.)
  ------------------------------------------------              
  ------------------------------------------------
  --4---------2-----------------------------------              
  --4---------2--------6--------------------------
  --2---------0--------6--------------------------             
  ---------------------4--------------------------

  w/rhy.fig 1  w/distortion
  With eyes so dilated I've become your pupil.
  You've thaught me everything without a poison apple.
  The water is so yellow, I'm a healthy student.
  Indebted and so greatful.Vacuum out the fluids.
  
  w/fill A ,first then rhy.fig. 2
  Chew meat for you,
  pass it back and forth.
  In a passionate kiss,
  from my mouth to yours
                           
  'cause I   like     you,           you,   you,
  ------------------------------------------------              
  ------------------------------------------------
  --4---------2-----------------------------------              
  --4---------2--------6--------------------------
  --2---------0--------6--------------------------             
  ---------------------4--------------------------
  Note:the following is studio noises you just may                       
  not play anything, that's what they used to do
  in a concert,then is the following

  I'm not 100% sure about this bit 
  
  w/distortion & flanger       (dist off)
  -0----------------------------0-----------------
  -0----------------------------0-----------------
  -0----------------------------0-----------------
  ------------------------------------------------  X4
  ------------------------------------------------
  ------------------------------------------------
                or
   Trem-----------------ª      (dit off)
  ------------------------------0-----------------
  ---5---5---5--5---5--5--------0-----------------
  ---4---4---4--4---4--4--------0-----------------
  ---5---5---5--5---5--5--------------------------  X4
  ------------------------------------------------
  ------------------------------------------------
  
  sometimes during concerts they didn't play this neither
  (down part)
  without dist.
  ------------------------------------------------
  ------------------------------------------------
  ----5\--4\--3\--2\--1/--2/--3/--4/--5-----------
  ----5\--4\--3\--2\--1/--2/--3/--4/--5-----------
  ----5\--4\--3\--2\--1/--2/--3/--4/--5-----------
  ------------------------------------------------

  w/distortion
                          Ah!_____________________
     /\/\               /\/\/        /\/\/\/
  --h---------------------------------------------
  -4-5---2/3---(3)--4---5/--6/--7/---8------------
  ------------------------------------------------
  ------------------------------------------------
  ------------------------------------------------
  ------------------------------------------------
  
    /\/\/\/\/     /\/\/\/\/
  ------------------------------------------------
  --10------------14------------------------------
  --10------------14------------------------------
  ------------------------------------------------
  ------------------------------------------------
  ------------------------------------------------

    /\/\/\/\/\/\/\/\/\/\/\/\/
       grad. slide
  ------------------------------------------------
  --16/------------/18/---------------------------
  --16/------------/18/---------------------------
  --16/------------/18/---------------------------
  ------------------------------------------------
  
  w/rhy. fig 1
  One baby to another says I'm lucky to meet you.  
  I don't care what you think unless it is about me.
  It is now my duty to completely drain you.
  A travel through a tube and end up in your infection.
  
  w/fill A first then w/rhy.fig.2
  Chew meat for you,
  pass it back and forth.
  In a passionate kiss,
  from my mouth to yours
  sloppy lips to lips, 
  you're my vitamins
  
  'cause I   like     you
  ------------------------------------------------              
  ------------------------------------------------
  --4---------2-----------------------------------              
  --4---------2--------6--------------------------
  --2---------0--------6--------------------------             
  ---------------------4--------------------------


Important: The song above is NOT stored on the Chordie server. The original song is hosted at www.xguitar.com. Chordie works as a search engine and provides on-the-fly formatting. Chordie does not index songs against artists/composers will. To remove this song please click here.

This song is displayed as text-only. Transposing and tuning is only available for chordpro-songs.

Login - add to songbook

Rating click stars to rate

Layout
Accuracy

SHARE PAGE  




You need to log in to post comments