In Bloom

Nirvana

Intro.- w/distortion
 |--------------------------------------------------------------------------|
 |--------------------------------------------------------------------------|
 |--3-----3--3--------------------------------------------------------------|
 |--3-----3--3---5-----5--5----5--5--5----3---3-----3--3/6--6----6--6----6--|
 |--1-----1--1---5-----5--5----5--5--5----3---3-----3--3/6--6----6--6----6--|
 |---------------3-----3--3----3--3--3----1---1-----1--1/4--4----4--4----4--|
 |--------------------------------------------------------------------------|
 |--------------------------------------------------------------------------|
 |--3-----3--3---0----------------------------------------------------------|
 |--3-----3--3---0---5---5--5---5--5----5\3---3-----3--3/6------------------|
 |--1-----1--1---0---5---5--5---5--5----5\3---3-----3--3/6------------------|
 |-------------------3---3--3---3--3----3\1---1-----1--1/4------------------|

Rhy fig 1
 |--------------------------------------------------------------------------|
 |o-------------------------------------------------------------------------|
 |--3--3--3--3--3---X--3----------------------------/8--8--8--8--8----------|
 |--3--3--3--3--3---X--3----4--4--4--4--4---X---4---/8--8--8--8--8----------|
 |o-1--1--1--1--1---X--1----4--4--4--4--4---X---4---/6--6--6--6--6----------|
 |--------------------------2--2--2--2--2---X---2---------------------------|
 |--------------------------------------|
 |-------------------------------------o|
 |--X--8\4--4--4--4----2---2---2---2----|   X2
 |--X--8\4--4--4--4----2---2---2---2----|
 |--X--6\2--2--2--2----0---0---0---0---o|
 |--------------------------------------|

Verse.- (this is done by the bass but you can play this with the guitar
and sounds pretty good)
Rhy. fig 2
 |--------------------------------------------------------------------------|
 |o-------------------------------------------------------------------------|
 |--------------------------------------------------------------------------|
 |--------------------------------------------------------------------------|
 |o-1---1--1--1--1--1----1----------------------------6--6--6--6--6-----6---|
 |---------------------------2--2--2--2--2--2-----2-------------------------|
 |------------------------------|
 |-----------------------------o|
 |------------------------------|
 |------------------------------| X2
 |--2--2--2--2-----------------o|
 |---------------5--5--5--5-----|

w/rhy. fig. 2
Sell the kids for food
weather changes moods
rhy. fig 3
clean
Spring is here a - gain
 |--------------------------------------------------------------------------|
 |--3----3--3--3--3--X--3---------------------------------------------------|
 |--3----3--3--3--3--X--3---3---3--3--3--3--X--3---8--8--8--8--8--X--8------|
 |--3----3--3--3--3--X--3---4---4--4--4--4--X--4---8--8--8--8--8--X--8------|
 |--1----1--1--1--1--X--1---4---4--4--4--4--X--4---6--6--6--6--6--X--6------|
 |--------------------------2---2--2--2--2--X--2----------------------------|
 |------------------------------|
 |------------------------------|
 |---4--4---4------2---2--2-----|
 |---4--4---4------2---2--2-----|
 |---2--2---2------0---0--0-----|
 |------------------------------|

Trem--)
Re - pro - duc - tive glands He's
 |--------------------------------------------------------------------------|
 |--3----3--3--3--3--X--3-------------------------------------------------3-|
 |--3----3--3--3--3--X--3---3---3--3--3--3--X--3---8--8--8--8--8---8---4--2-|
 |--3----3--3--3--3--X--3---4---4--4--4--4--X--4---8--8--8--8--8---8---4--0-|
 |--1----1--1--1--1--X--1---4---4--4--4--4--X--4---6--6--6--6--6---6---2----|
 |--------------------------2---2--2--2--2--X--2----------------------------|

Chorus.- Bb5 (x133xx) G5(355xxx) C(x355xx) Eb(x688xx)
 Bb5G5Bb5G5
 the one    who likes all that pretty songs 
 Bb5G5
 and he likes to sing along 
 Bb5G5
 and he likes to shoot his gun, 
C Eb (with slide)
but he knows not what it means,
C Eb (with slide)
knows not what it means and I say,
 Bb5G5Bb5G5
 He's the one who likes all that pretty songs
 Bb5G5
   and he likes to shoot his gun, 
C Eb (with slide)
but he knows not what it means,
C Eb (with slide)
knows not what it means and I say,
(w/intro)
Aahh!
w/rhy. fig 2
We can have some more.
Nature is a whore.
w/rhy. fig 3
Bruises on the fruit.
Tender age in bloom.
Repeat chorus
Solo.-
Harm
          ----------------------ª
 |--------------------------------------------------------------------------|
 |--------------------------------------------------------------------------|
 |---8hbf---------------------------8pb2gr------(8)----6----(6)brf------6(6)|
 |--------------------------------------------------------------------------|
 |--------------------------------------------------------------------------|
 |--------------------------------------------------------------------------|

/\/\/\/\
 |--------------------------------------------------------------------------|
 |--------------------------------------------------------------------------|
 |---6----6h8----6---8bf------8--------6----8---8bf----8---------6-----8----|
 |-------------------------------6h8--------------------------------------0-|
 |--------------------------------------------------------------------------|
 |--------------------------------------------------------------------------|

Harm.
        ----------------
 |----------------------\---------------------------------------------------|
 |-----------------------\-----------------8----------8h9----8----9brf--(9)-|
 |---10hbrf---------------10-----10-------------10--------------------------|
 |--------------------------------------------------------------------------|
 |--------------------------------------------------------------------------|
 |--------------------------------------------------------------------------|

/\/\
                             ----------------------------
 |-------------------------------------------------------\------------------|
 |---9h11----(11)bf------11hbrf-------(11)---------11-----(11)-----(11)\----|
 |--------------------------------------------------------------------------|
 |--------------------------------------------------------------------------|
 |--------------------------------------------------------------------------|
 |--------------------------------------------------------------------------|
                 let ring                                      Trem--------ª
 |--------------------------------------------------------------------------|
 |--------------------8----------8-------------8-----7----6-----------------|
 |-----6---------6----------------------6------------------------3-----6----|
 |---------------------------------------------------------------3-----6----|
 |---------------------------------------------------------------1-----4----|
 |--------------------------------------------------------------------------|

Chorus.- Bb5 (x133xx) G5(355xxx) C(x355xx) Eb(x688xx)
 Bb5G5Bb5G5
 He's the one    who likes all that pretty songs
 Bb5G5
 and he likes to sing along 
 Bb5G5
 and he likes to shoot his gun, 
C Eb (with slide)
but he knows not what it means,
C Eb (with slide)
knows not what it means and I say,
 Bb5G5Bb5G5
 He's the one who likes all that pretty songs
 Bb5G5
   and he likes to shoot his gun, 
C Eb (with slide)
but he knows not what it means,
C Eb (with slide)
knows not what it means,
C Eb (with slide)
knows not what it means,
C Eb (with slide)
knows not what it means, and I say
w/intro (X2)
Aahh! Oohh!
It ends like this.-
 |---------------|
 |---------------|
 |---------------|
 |--8\-----------|
 |--8\-----------|
 |--6\-----------|



Bb5 G5
variations - click chord images
Transpose chords:
Tuning:
Cool service:
View: Size:
A  A  A
Rating:
Layout:
  • Currently 2.5/5 Stars.
  • 1
  • 2
  • 3
  • 4
  • 5
 
Accuracy:
  • Currently 5/5 Stars.
  • 1
  • 2
  • 3
  • 4
  • 5
 
click stars to rate
Chordie recommends:
Learn how to play guitar at JamPlay.com
Songbook:
Login to add this song to your songbook
Support the artist
Preview/buy this song
MSN Music
Why this non-profit ad?

 
login to add comments/video/corrections