Guitar Tabs, Chords and Lyrics


All Apologies   Nirvana

E----------------------|----------------------|-


B----------------------|----------------------|-


G----------------------|----------------------|-


D----------------------|----------12-12-9-10--|-


A---9-10-9-12-12-9-10--|---9-10-9-------------|-


D-0--------------------|-0--------------------|-
E----------------------|----------------------|-
B----------------------|----------------------|-
G----------------------|----------11-11-9-----|-
D----------------------|------------------12--|-
A---9-10-9-12-12-9-10--|---9-10-9-------------|-
D-0--------------------|-0--------------------|-

Chorus
  [G5]      [D5]   [G5]      [D5]   [G5]      [D5]   [G5]      [D5]   [A5]   [D5]   [A5]                               
E---------------------------------------------|-
B---------------------------------------------|-
G---------------------------------------------|-
D-5-5-5--0-5-5-5--0-5-5-5--0-5-5-5--0-7--0-7--|-
A-5-5-5--0-5-5-5--0-5-5-5--0-5-5-5--0-7--0-7--|-
D-5-5-5--0-5-5-5--0-5-5-5--0-5-5-5--0-7--0-7--|-

In Utero addition:
*****Then the Chorus
Eb ----------------------------------------|-
Bb ----------------------------------------|-
Gb --------------------------------------2-|-
Db -5-5-5--0-5-5-5--0-5-5-5--0-5-5-5--0--2-|-
Ab -5-5-5--0-5-5-5--0-5-5-5--0-5-5-5--0--0-|-
Db -5-5-5--0-5-5-5--0-5-5-5--0-5-5-5--0--0-|-

All in all is all we are * # * # * # etc.
| | | | | | | |
* |----------------------------------|-----------------------------------|
  |----------------------------------|-----------------------------------|
  |----------------------------------|-----------------/6---6---4---3----|
  |------3---4---3--/6---6---4---3---|------3---4---3--------------------|
  |--4-------------------------------|--4--------------------------------|
  |----------------------------------|-----------------------------------|

| | | | | | | |

|----------------------------------|-----------------/6---6---4---2----| |----------------------------------|-----------------------------------| |------3---4---3--/6---6---4---3---|------3---4---3--------------------| |--4-------------------------------|--4--------------------------------| |----------------------------------|-----------------------------------|
| | | | | | | |
% |----------------------------------|-----------------------------------|
  |----------------------------------|-------------------/6---6----------|
  |----------------------------------|-----------------------------------|
  |------3---4---3--/6---6---4---3---|------3---4---3--------------------|
  |--4-------------------------------|--4--------------------------------|
  |----------------------------------|-----------------------------------|
               |-----|-----|-----|-----|
               |-----|-----|-----|-----|     Play this the last time
               |-----|-----|-----|-----|
$ Cello bit:   |--9--|--6--|--9--|--11-| *2 |--9--|--6--|--3--|-----|
               |-----|-----|-----|-----|    |-----|-----|-----|--4--|
               |-----|-----|-----|-----|    

>>> >>> >>> >>> Volume Swells. Turn volume knob off
hammer on note and turn volume on,
repeat with every note. Use distortion.

Important: The song above is NOT stored on the Chordie server. The original song is hosted at www.xguitar.com. Chordie works as a search engine and provides on-the-fly formatting. Chordie does not index songs against artists'/composers' will. To remove this song please click here.

Text color:
Chord color:
Chord grids: 
Font size:    
Page size: 

A5 D5 G5
variations - click chord images

Login - add to songbook

Transpose chords

Tuning

Rating click stars to rate

Layout
Accuracy

SHARE PAGE  




You need to log in to post comments