Lake Of Fire

Nirvana

E-------------------------------------------------------

B-----------------------------------5b6r5b6r5-3---------

G-----------------------------------5b6r5b6r5-3---------

D-------------------------------------------------------

A-------------------------------------------------------

E-------------------------------------------------------

E-------------------------------------------------------

B-------------------------------------------------------

G---------------------------------5--5-----5------------

D---------------------------------5--5-----5--3--3--5---

A---------------------------------3--3-----3--3--3--5---

E---------------------------------------------1--1--3---


 GmF5G5GmF5G5
E------------------------------|-----------------------------------------
B------------------------------|----11~-11~-11~-11~-11~-11~\--6~--6~/8~--
G------------------------------|-/10--10~-10~-10~-10~-10~--\5~--5~--/7~--
D---------------------3--------|-----------------------------------------
A-5-5-5-5-5-5-5-5-3---1---5----|-----------------------------------------
E-3-3-3-3-3-3-3-3-1-------3----|-----------------------------------------

 GmFBb
 Where do bad folks go when they die?
 GmC5Bb
They don't go to heaven where the angels fly
 GmFBb
They go down to the lake of fire and fry
 CFGmGmFGFG5
Won't see 'em again till the fourth of july     
 DmBb
 I knew a lady who came from duluth
 DmA
 She got bit by a dog with a rabid tooth
 DmBb
 She went to her grave just a little too soon
 CDmDsus2
And she flew away howling on the yellow moon
(Repeat Chorus)
Now the people cry and the people moan
And they look for a dry place to call their home
And try to find some place to rest their bones
While the angels and the devils
Fight to claim them for their own
(Repeat Chorus) Gm F G5 Gm F G5
SOLO
E------3---------3---------------------------------------
B--2-3---3--6b7------6-----------------------------------
G----------------------5-3-------------------------------
D--------------------------5-3----------------------3-5--
A------------------------------5-4-3----------3-4-5------
E------------------------------------6-3----6------------
E--------------------------------------------------------
B--3b4---------------6~----6~----------------------------
G--3b4-------(0)-5/7----7~----7\5--3---------------------
D-------5----------------------------5-------0-3---3-----
A-----------------------------------------/5-----5---5---
E--------------------------------------------------------
E-------------------------------3------------------------
B--------------------6~------/3---3-7-3------------------
G----------------5/7----7\--------------3-5--------------
D-------------------------------------------3---5--------
A--3-----------------------------------------------------
E----6-3-3-3----------------------------------3----------
E--------------------------------------------------------
B--3b4------3b4-----3b4----------------------------------
G--3b4------3b4-----3b4----------------------------------
D------5-5------5-------5-3------------------------3-----
A---------------------------5-4-3------------3-4-5-------
E---------------------------------6-3----3-6-------------
E----------------------
B----------------------
G------(3)-----(4)-----
D--3h5-----(3)-----5---
A----------------------
E----------------------
















A Bb C C5 Dm Dsus2 F F5 G G5 Gm
variations - click chord images
Transpose chords:
Tuning:
Cool service:
View: Size:
A  A  A
Rating:
Layout:
  • Currently 3.8/5 Stars.
  • 1
  • 2
  • 3
  • 4
  • 5
 
Accuracy:
  • Currently 4.1/5 Stars.
  • 1
  • 2
  • 3
  • 4
  • 5
 
click stars to rate
Chordie recommends:
Learn to play songs at Jamplay.com with video guitar lessons
Songbook:
Login to add this song to your songbook
Support the artist
Preview/buy this song
MSN Music
Why this non-profit ad?

 
login to add comments/video/corrections