Chordie logo


Pennyroyal Tea    Nirvana



Nirvana (In Utero & Unplugged in New York)

PENNYROYAL TEA - tabbed by ???
  This is the main acoustic strumming part just repeat this riff. The
  strumming may not be exact, just listen to cd and you'll get it.       
e:0------0-----0-----------0-----0-------------3-----3----------3-----3--|
B:1------1-----1-----------1-----1-------------0-----0----------0-----0--|
G:2------2-----2-----------2-----2-------------0-----0----------0-----0--|
D:2---------2-----2-----2-----2-----2-------------0----------------0-----|
A:0----0-------------0---------------------2----------------2------------|
E:--------------------------------------3----------------3---------------|
  I'm on .....       My time...       With Everyone......

  Start the
  Distortion
   this note
e:----3---|
B:----0---|
G:----0---|
D:----0---|
A:----2---|
E:----3---|
       Play this with distortion. (Sing verse 1 and 2 then 1 agian then go
       to verse three and play that..)
            sit and drink penny... Tea.................   
            Steal...thats inside.. Me..............       
e:----------------------------------------------------------------------|
B:----------------------------------------------------------------------|
G:---|>5--5-5--5-5-5-5/7--7-7--7-7---3--3-3-3--3-3-3--3-3-3-3-3-3-3-3/|-|
D:---|>5--5-5--5-5-5-5/7--7-7--7-7---3--3-3-3--3-3-3--3-3-3-3-3-3-3-3/|-|
A:---|>3--3-3--3-3-3-3/5--5-5--5-5---1--1-1-1--1-1-1--1-0-1-0-1-0-1-0/|-|
E:---|----------------------------------------------------------------|-|
     |-------

Important: The song above is NOT stored on the Chordie server. The original song is hosted at www.xguitar.com. Chordie works as a search engine and provides on-the-fly formatting. Chordie does not index songs against artists/composers will. To remove this song please click here.

This song is displayed as text-only. Transposing and tuning is only available for chordpro-songs.

Login - add to songbook

Rating click stars to rate

Layout
Accuracy

SHARE PAGE  




You need to log in to post comments