Chordie logo

Sad For Me   No Doubt



Tabbed by Marijke (supermarijke@hotmail.com).
I couldn't find a tab of "Sad for me" anywhere on the internet, so I've
tabbed one by myself.
Please note that I'm not pretty sure about some notes, but yeah,
it is my first tab!
If you are interested in the timing of the notes, please contact me.
The notes in this tab are a little bit higher then the original.

www.supermarijke.tk


E||------------------|-----------------||------------------|-----------------|
B||--7----8-----7----|--5----3----2----||---0--------------|-----------------|
G||------------------|-----------------||*------------4----|--2--------------|
D||------------------|-----------------||*-------4---------|-------2---------|
A||--9----10----9----|--7----5----4----||---2--------------|--0--------------|
E||------------------|-----------------||------------------|------------2----|



-----------------|-----------------|-----------------|-----------------|
------------3----|-----------------|-----------------|-----------------|
-----------------|-----------------|------------4----|--2--------------|
-------4---------|--5--------------|-------4---------|-------2---------|
--5--------------|-------5---------|--2--------------|--0--------------|
-----------------|--3---------3----|-----------------|------------2----|


                                    3x
-----------------|------------------||-----------------|-----------------|
-----------------|------------------||-----------------|-----------------|
-----------------|-----------------*||--0----0----0----|--0----0----0----|
-------2---------|--4----0---------*||-----------------|-----------------|
------------2----|------------2-----||-----------------|-----------------|
--0--------------|------------------||--3--------------|--3--------------|



-----------------|-----------------||------------------|-----------------|
-----------------|-----------------||---0--------------|-----------------|
-----------------|-----------------||*------------4----|--2--------------|
--4----4----4----|--4----4----4----||*-------4---------|-------2---------|
-----------------|-----------------||---2--------------|--0--------------|
--2--------------|--2--------------||------------------|------------2----|



-----------------|-----------------|-----------------|-----------------|
------------3----|-----------------|-----------------|-----------------|
-----------------|-----------------|------------4----|--2--------------|
-------4---------|--5--------------|-------4---------|-------2---------|
--5--------------|-------5---------|--2--------------|--0--------------|
-----------------|--3---------3----|-----------------|------------2----|


                                    3x
-----------------|------------------||------------------|-----------------|
-----------------|------------------||------------------|-----------------|
-----------------|-----------------*||*--0----0----0----|--0----0----0----|
-------2---------|--4----0---------*||*-----------------|-----------------|
------------2----|------------2-----||------------------|-----------------|
--0--------------|------------------||---3--------------|--3--------------|


                                    2x
-----------------|------------------||------------------|-----------------|
-----------------|------------------||---0--------------|-----------------|
-----------------|-----------------*||*------------4----|--2--------------|
--4----4----4----|--4----4----4----*||*-------4---------|-------2---------|
-----------------|------------------||---2--------------|--0--------------|
--2--------------|--2---------------||------------------|------------2----|



-----------------|-----------------|-----------------|-----------------|
------------3----|-----------------|-----------------|-----------------|
-----------------|-----------------|------------4----|--2--------------|
-------4---------|--5--------------|-------4---------|-------2---------|
--5--------------|-------5---------|--2--------------|--0--------------|
-----------------|--3---------3----|-----------------|------------2----|



-----------------|------------------||--------------------|-----------------|
-----------------|------------------||--------------------|-----------------|
-----------------|-----------------*||*-------------------|-----------------|
-------2---------|--4----0---------*||*-------------------|------------0----|
------------2----|------------2-----||---2----------------|--2----4---------|
--0--------------|------------------||--------------------|-----------------|



-------------------|--------------------||-------------------|-----------------|
-------------------|--------------------||-------------------|-----------------|
-------------------|-------------------*||-------------------|-----------------|
--2----------------|-------------------*||-------------------|-----------------|
-------------------|--------------------||--0----------------|--0----2----4----|
-------------------|--0-----------------||-------------------|-----------------|



-------------------|-----------------||--------------------|-----------------|
-------------------|-----------------||--------------------|-----------------|
-------------------|-----------------||*-------------------|-----------------|
--0----------------|--0--------------||*-------------------|------------0----|
-------------------|-------4----3----||---2----------------|--2----4---------|
-------------------|-----------------||--------------------|-----------------|



-------------------|--------------------||-------------------|
-------------------|--------------------||-------------------|
-------------------|-------------------*||-------------------|
--2----------------|-------------------*||-------------------|
-------------------|--------------------||--0----------------|
-------------------|--0-----------------||-------------------|




-------------------|-------------------|-------------------||------------------|
-------------------|-------------------|-------------------||---0--------------|
-------------------|-------------------|-------------------||*------------4----|
-------------------|-------------------|-------------------||*-------4---------|
--0----------------|--1----------------|--1----------------||---2--------------|
-------------------|-------------------|-------------------||------------------|



-----------------|-----------------|-----------------|-----------------|
-----------------|------------3----|-----------------|-----------------|
--2--------------|-----------------|-----------------|------------4----|
-------2---------|-------4---------|--5--------------|-------4---------|
--0--------------|--5--------------|-------5---------|--2--------------|
------------2----|-----------------|--3---------3----|-----------------|



-----------------|-----------------|------------------||------------------|
-----------------|-----------------|------------------||------------------|
--2--------------|-----------------|-----------------*||*--0----0----0----|
-------2---------|-------2---------|--4----0---------*||*-----------------|
--0--------------|------------2----|------------2-----||------------------|
------------2----|--0--------------|------------------||---3--------------|



-----------------|-----------------|------------------||-----------------|
-----------------|-----------------|------------------||-----------------|
--0----0----0----|-----------------|-----------------*||--0----0----0----|
-----------------|--4----4----4----|--4----4----4----*||-----------------|
-----------------|-----------------|------------------||-----------------|
--3--------------|--2--------------|--2---------------||--3--------------|



-----------------|-----------------|-----------------|-------------------|
-----------------|-----------------|-----------------|--0----------------|
--0----0----0----|--3----3----3----|--3----3----3----|-------------------|
-----------------|-----------------|-----------------|-------------------|
-----------------|--1--------------|--1--------------|--2----------------|
--3--------------|-----------------|-----------------|-------------------|



------------------|--7----------------||
------------------|--0----------------||
------------------|-------------------||
------------------|-------------------||
------------------|--2----------------||


Important: The song above is NOT stored on the Chordie server. The original song is hosted at www.xguitar.com. Chordie works as a search engine and provides on-the-fly formatting. Chordie does not index songs against artists/composers will. To remove this song please click here.

This song is displayed as text-only. Transposing and tuning is only available for chordpro-songs.

Login - add to songbook

Rating click stars to rate

Layout
Accuracy

SHARE PAGE  



You need to log in to post comments