Chordie logo

Magics in the Makeup   No Doubt



No Doubt - Magic's in the Makeup
Submitted By: scittles22
EMail: chimchim221@yahoo.com


Intro:
Chords for intro
   Dm   C   G
E---5---5---3--
B---6---3---3--
D---7---3---4--
G---7---3-- 5--
A---5---5-- 5--
E---5---5---3--

Intro:

E------5------5-------5-------5-------3-------3--------3------3-----
B----6--6---6---6---6---6---6---6---5---5---5---5-----3--3---3--3---
D--7------7-------7-------7-------5-------5---------4-------4-------   x 2
G-------------------------------------------------5--------5--------
A-------------------------------------------------------------------
E-------------------------------------------------------------------

Verse:

E-----------------------------------
B----5----------5-------------------
G------5---2------5-----------------
D-------------------5-5-5/7-7\5-----
A-----------------------------------
E-----------------------------------

Pre-Chorus:
    F     C     G
E---1-----0-----3-----
B---1-----1-----0-----
D---2-----0-----0-----
G---3-----2-----0-----
A---3-----3-----2-----
E---1-----0-----3-----

Chorus:
                    F                       G
E-------------------1-----------------------3-----
D-------------------1-----------------------3-----
G-------------------2-----------------------0-----
D---3---2-----------3-----3---2-------------0-----
A-----------5---3---3--------------5---3----2-----
E-------------------1-----------------------3-----

Solo:



Important: The song above is NOT stored on the Chordie server. The original song is hosted at www.xguitar.com. Chordie works as a search engine and provides on-the-fly formatting. Chordie does not index songs against artists/composers will. To remove this song please click here.

This song is displayed as text-only. Transposing and tuning is only available for chordpro-songs.

Login - add to songbook

Rating click stars to rate

Layout
Accuracy

SHARE PAGE  

You need to log in to post comments