Chordie logo

Feels Like Home   No Use For A Name



|--------------------------------------------------------------------------------------------------
|--------------------------------------------------------------------------------------------------
|--------------------------------------------------------------------------------------------------
|---------------3--3--3--3--5--5--5--5--5--5--5--5---------------------3--3--3--3---8---8---8---8--
|--6--6--6--6--5--5--5--5--6--6--6--6--6--6--6--6------6--6--6--6--6--5--5--5--5--10--10--10--10---
|-4--4--4--4------------------------------------------4--4--4--4-----------------------------------

-------------------------------------------------------------------
-------------------------------------------------------------------
-------------------------------------------------------------------
---8---8---8---8---------------3--3--3--3--5--5--5--5--5--5--5--5--
-10--10--10--10---6--6--6--6--5--5--5--5--6--6--6--6--6--6--6--6---
-----------------4--4--4--4----------------------------------------

----------------------------------------------------------------------------------
----------------------------------------------------------------------------------
----------------------------------------------------------------------------------
---------------------------3--3--3--3--3--3--3--3---8---8---8---8---8---8---8---8-
--6--6--6--6--6--6--6--6--5--5--5--5--5--5--5--5--10--10--10--10--10--10--10--10--
-4--4--4--4--4--4--4--4-----------------------------------------------------------

------------------------------------------------------------------------
------------------------------------------------------------------------
------------------------------------------------------------------------
--3--3--3--3--3--3--3--3--5--5--5--5--3--3--3--3------------------------
-5--5--5--5--5--5--5--5--6--6--6--6--5--5--5--5--6--6--6--6--6--6--6--6-
------------------------------------------------4--4--4--4--4--4--4--4--

------------------------------------------------------------------------------
------------------------------------------------------------------------------
------------------------------------------------------------------------------
---8---8---8---8---8---8---8---8--3--3--3--3--3--3--3--5--5--5--5--3--3--3--3-
-10--10--10--10--10--10--10--10--5--5--5--5--5--5--5--6--6--6--6--5--5--5--5--
------------------------------------------------------------------------------

-------------------------|
-------------------------|
-------------------------|
-----------------------5-|
--6--6--6--6--6--5--3--3-|
-4--4--4--4--4---3--1----|



Important: The song above is NOT stored on the Chordie server. The original song is hosted at www.xguitar.com. Chordie works as a search engine and provides on-the-fly formatting. Chordie does not index songs against artists/composers will. To remove this song please click here.

This song is displayed as text-only. Transposing and tuning is only available for chordpro-songs.

Login - add to songbook

Rating click stars to rate

Layout
Accuracy

SHARE PAGE  

You need to log in to post comments