Chordie logo

Soulmate   No Use For A Name



-------------------------------------------------------------------------------------------------------------------
                       SOULMATE - No Use For A Name
-------------------------------------------------------------------------------------------------------------------

e-|------------------------------------------------------------------------
B-|------------------------------------------------------------------------
G-|------------------------------------------------------------------------
D-|-13-13-12-12-13-13-15-15-13-13-12-12-13-13-15-15-13-13-12-12-13-13-15-15
A-|-11-11-10-10-11-11-13-13-11-11-10-10-11-11-13-13-11-11-10-10-11-11-13-13
E-|------------------------------------------------------------------------

e-|-------------------------------------------------------------------------
B-|-------------------------------------------------------------------------
G-|-------------------------------------------------------------------------
D-|-13-13-12-13-10-10-12-12-13-13-12-12-13-13-15-15-13-13-12-12-13-13-15-15-
A-|-11-11-10-10--8--8-10-10-11-11-10-10-11-11-13-13-11-11-10-10-11-11-13-13-
E-|-------------------------------------------------------------------------

e-|-------------------------------------------------------|
B-|-------------------------------------------------------|
G-|-------------------------------------------------------|
D-|-15-15-13-13-12-12-13-13-15-15-13-13-12-13-10-10-12-12-|
A-|-13-13-11-11-10-10-11-11-13-13-11-11-10-10--8--8-10-10-|
E-|-------------------------------------------------------|

e-|---------------------------------------------------------------------
B-|---------------------------------------------------------------------
G-|---------------------------------------------------------------------
D-|---------------------------------------------------------------------
A-|-6-x-x-6-x-x-6-x-x-6-x-x-6-x-x-6-x-x-6-x-x-6-x-x-6-x-x-6-x-x-6-x-x-6-
E-|-4-x-x-4-x-x-4-x-x-4-x-x-4-x-x-4-x-x-4-x-x-4-x-x-4-x-x-4-x-x-4-x-x-4-

e-|-----------------------------------------------------------------
B-|-----------------------------------------------------------------
G-|-----------------------------------------------------------------
D-|-6-6-6-6-6-6-6-6-6-6-6-6-6-6-6-6-----------------8-8-8-8-8-8-8-8-
A-|-4-4-4-4-4-4-4-4-4-4-4-4-4-4-4-4-6-6-6-6-6-6-6-6-6-6-6-6-6-6-6-6-
E-|---------------------------------4-4-4-4-4-4-4-4-----------------

e-------------------------------------------------------------------
B-|-----------------------------------------------------------------
G-|-----------------------------------------------------------------
D-|-----------------6-6-6-6-6-6-6-6-----------------8-8-8-8-8-8-8-8-
A-|-4-4-4-4-4-4-4-4-4-4-4-4-4-4-4-4-6-6-6-6-6-6-6-6-6-6-6-6-6-6-6-6-
E-|-2-2-2-2-2-2-2-2-----------------4-4-4-4-4-4-4-4-----------------

e-|-----------------------------------------------------------------
B-|-----------------------------------------------------------------
G-|-----------------------------------------------------------------
D-|-6-6-6-6-6-6-6-6-6-6-6-6-6-6-6-6---------------------------------
A-|-4-4-4-4-4-4-4-4-4-4-4-4-4-4-4-4-8-8-8-8-8-8-8-8-4-4-4-4-4-4-4-4-
E-|---------------------------------6-6-6-6-6-6-6-6-2-2-2-2-2-2-2-2-

e-|-------------|
B-|-------------|
G-|-------------|
D-|-6-6-----8-8-|
A-|-4-4-6-6-6-6-|
E-|-----4-4-----|

e-|------------------------------------------------------------------------
B-|------------------------------------------------------------------------
G-|------------------------------------------------------------------------
D-|-13-13-12-12-13-13-15-15-13-13-12-12-13-13-15-15-13-13-12-12-13-13-15-15
A-|-11-11-10-10-11-11-13-13-11-11-10-10-11-11-13-13-11-11-10-10-11-11-13-13
E-|------------------------------------------------------------------------

e-|-------------------------------------------------------------------------
B-|-------------------------------------------------------------------------
G-|-------------------------------------------------------------------------
D-|-13-13-12-13-10-10-12-12-13-13-12-12-13-13-15-15-13-13-12-12-13-13-15-15-
A-|-11-11-10-10--8--8-10-10-11-11-10-10-11-11-13-13-11-11-10-10-11-11-13-13-
E-|-------------------------------------------------------------------------

e-|-------------------------------------------------------|
B-|-------------------------------------------------------|
G-|-------------------------------------------------------|
D-|-15-15-13-13-12-12-13-13-15-15-13-13-12-13-10-10-12-12-|
A-|-13-13-11-11-10-10-11-11-13-13-11-11-10-10--8--8-10-10-|
E-|-------------------------------------------------------|

e-|---------------------------------------------------------------------
B-|---------------------------------------------------------------------
G-|---------------------------------------------------------------------
D-|---------------------------------------------------------------------
A-|-6-x-x-6-x-x-6-x-x-6-x-x-6-x-x-6-x-x-6-x-x-6-x-x-6-x-x-6-x-x-6-x-x-6-
E-|-4-x-x-4-x-x-4-x-x-4-x-x-4-x-x-4-x-x-4-x-x-4-x-x-4-x-x-4-x-x-4-x-x-4-

e-|-----------------------------------------------------------------
B-|-----------------------------------------------------------------
G-|-----------------------------------------------------------------
D-|-6-6-6-6-6-6-6-6-6-6-6-6-6-6-6-6-----------------8-8-8-8-8-8-8-8-
A-|-4-4-4-4-4-4-4-4-4-4-4-4-4-4-4-4-6-6-6-6-6-6-6-6-6-6-6-6-6-6-6-6-
E-|---------------------------------4-4-4-4-4-4-4-4-----------------

e-------------------------------------------------------------------
B-|-----------------------------------------------------------------
G-|-----------------------------------------------------------------
D-|-----------------6-6-6-6-6-6-6-6-----------------8-8-8-8-8-8-8-8-
A-|-4-4-4-4-4-4-4-4-4-4-4-4-4-4-4-4-6-6-6-6-6-6-6-6-6-6-6-6-6-6-6-6-
E-|-2-2-2-2-2-2-2-2-----------------4-4-4-4-4-4-4-4-----------------

e-|-----------------------------------------------------------------
B-|-----------------------------------------------------------------
G-|-----------------------------------------------------------------
D-|-6-6-6-6-6-6-6-6-6-6-6-6-6-6-6-6---------------------------------
A-|-4-4-4-4-4-4-4-4-4-4-4-4-4-4-4-4-8-8-8-8-8-8-8-8-4-4-4-4-4-4-4-4-
E-|---------------------------------6-6-6-6-6-6-6-6-2-2-2-2-2-2-2-2-

e-|-------------|
B-|-------------|
G-|-------------|
D-|-6-6-----8-8-|
A-|-4-4-6-6-6-6-|
E-|-----4-4-----|

e-|-------------------------------------------------------------------------
B-|-------------------------------------------------------------------------
G-|-------------------------------------------------------------------------
D-|-------------------------8-8-8-8-------------------------8-8-8-8-6-6-6-6-
A-|-6-6-6-6-5-5-5-5-3-3-3-3-6-6-6-6-6-6-6-6-5-5-5-5-3-3-3-3-6-6-6-6-4-4-4-4-
E-|-4-4-4-4-3-3-3-3-1-1-1-1---------4-4-4-4-3-3-3-3-1-1-1-1-----------------

e-|-------------------------------------------------------------------------|
B-|-------------------------------------------------------------------------|
G-|-------------------------------------------------------------------------|
D-|---------8-8-8-8-------------------------6-6-6-6-5-5-5-5-9-9-9-9-8-8-8-8-|
A-|-3-3-3-3-6-6-6-6-6-6-6-6-5-5-5-5-3-3-3-3-4-4-4-4-3-3-3-3-7-7-7-7-6-6-6-6-|
E-|-1-1-1-1---------4-4-4-4-3-3-3-3-1-1-1-1---------------------------------|

e-|---------------------------------------------------------------------
B-|------------------------------------9----9----9----9---8---8---8---8-
G-|---------------------------------10---10---10---10---9---9---9---9---
D-|-6-11-10-8-10-11-10-10-11-10-8-4-------------------------------------
A-|---------------------------------------------------------------------
E-|---------------------------------------------------------------------

e-|--------------------9-11-9^------|
B-|----9----11----9-11---------11-9-|
G-|-10---10----10-------------------|

D-|---------------------------------|
A-|---------------------------------|
E-|---------------------------------|

e-|---------------------------------------------------------------------
B-|---------------------------------------------------------------------
G-|---------------------------------------------------------------------
D-|---------------------------------------------------------------------
A-|-6-x-x-6-x-x-6-x-x-6-x-x-6-x-x-6-x-x-6-x-x-6-x-x-6-x-x-6-x-x-6-x-x-6-
E-|-4-x-x-4-x-x-4-x-x-4-x-x-4-x-x-4-x-x-4-x-x-4-x-x-4-x-x-4-x-x-4-x-x-4-

e-|-----------------------------------------------------------------
B-|-----------------------------------------------------------------
G-|-----------------------------------------------------------------
D-|-6-6-6-6-6-6-6-6-6-6-6-6-6-6-6-6-----------------8-8-8-8-8-8-8-8-
A-|-4-4-4-4-4-4-4-4-4-4-4-4-4-4-4-4-6-6-6-6-6-6-6-6-6-6-6-6-6-6-6-6-
E-|---------------------------------4-4-4-4-4-4-4-4-----------------

e-------------------------------------------------------------------
B-|-----------------------------------------------------------------
G-|-----------------------------------------------------------------
D-|-----------------6-6-6-6-6-6-6-6-----------------8-8-8-8-8-8-8-8-
A-|-4-4-4-4-4-4-4-4-4-4-4-4-4-4-4-4-6-6-6-6-6-6-6-6-6-6-6-6-6-6-6-6-
E-|-2-2-2-2-2-2-2-2-----------------4-4-4-4-4-4-4-4-----------------

e-|-----------------------------------------------------------------
B-|-----------------------------------------------------------------
G-|-----------------------------------------------------------------
D-|-6-6-6-6-6-6-6-6-6-6-6-6-6-6-6-6---------------------------------
A-|-4-4-4-4-4-4-4-4-4-4-4-4-4-4-4-4-8-8-8-8-8-8-8-8-4-4-4-4-4-4-4-4-
E-|---------------------------------6-6-6-6-6-6-6-6-2-2-2-2-2-2-2-2-

e-|-------------|
B-|-------------|
G-|-------------|
D-|-6-6-----8-8-|
A-|-4-4-6-6-6-6-|
E-|-----4-4-----|

e-|-------------------------------------------------------------------------
B-|-------------------------------------------------------------------------
G-|-------------------------------------------------------------------------
D-|-------------------------8-8-8-8-------------------------8-8-8-8-6-6-6-6-
A-|-6-6-6-6-5-5-5-5-3-3-3-3-6-6-6-6-6-6-6-6-5-5-5-5-3-3-3-3-6-6-6-6-4-4-4-4-
E-|-4-4-4-4-3-3-3-3-1-1-1-1---------4-4-4-4-3-3-3-3-1-1-1-1-----------------

e-|-------------------------------------------------------------------------|
B-|-------------------------------------------------------------------------|
G-|-------------------------------------------------------------------------|
D-|---------8-8-8-8-------------------------6-6-6-6-5-5-5-5-9-9-9-9-8-8-8-8-|
A-|-3-3-3-3-6-6-6-6-6-6-6-6-5-5-5-5-3-3-3-3-4-4-4-4-3-3-3-3-7-7-7-7-6-6-6-6-|
E-|-1-1-1-1---------4-4-4-4-3-3-3-3-1-1-1-1---------------------------------|

e-|------------------------------------------------------------------------
B-|------------------------------------------------------------------------
G-|------------------------------------------------------------------------
D-|-13-13-12-12-13-13-15-15-13-13-12-12-13-13-15-15-13-13-12-12-13-13-15-15
A-|-11-11-10-10-11-11-13-13-11-11-10-10-11-11-13-13-11-11-10-10-11-11-13-13
E-|------------------------------------------------------------------------

e-|-------------------------------------------------------------------------
B-|-------------------------------------------------------------------------
G-|-------------------------------------------------------------------------
D-|-13-13-12-13-10-10-12-12-13-13-12-12-13-13-15-15-13-13-12-12-13-13-15-15-
A-|-11-11-10-10--8--8-10-10-11-11-10-10-11-11-13-13-11-11-10-10-11-11-13-13-
E-|-------------------------------------------------------------------------

e-|-------------------------------------------------------|
B-|-------------------------------------------------------|
G-|-------------------------------------------------------|
D-|-15-15-13-13-12-12-13-13-15-15-13-13-12-13-10-10-12-12-|
A-|-13-13-11-11-10-10-11-11-13-13-11-11-10-10--8--8-10-10-|
E-|-------------------------------------------------------|
   =====================================================================


Important: The song above is NOT stored on the Chordie server. The original song is hosted at www.xguitar.com. Chordie works as a search engine and provides on-the-fly formatting. Chordie does not index songs against artists/composers will. To remove this song please click here.

This song is displayed as text-only. Transposing and tuning is only available for chordpro-songs.

Login - add to songbook

Rating click stars to rate

Layout
Accuracy

SHARE PAGE  

You need to log in to post comments