Guitar Tabs, Chords and Lyrics


August 8th   Nofx




Date: Wed, November 12 1997

Group: NOFX
Album: Heavy Petting Zoo
Released: 1996 epitaph records
Track: 12
Title: august 8th

/ \ - slide
^ - bend
intro/verse/outro - i left the chords on the top so you can easily get the 
                    fingering in place

 C       G       Am        G        C        G       Am        C

|------------------------------------------------------------------------|
|--1-----------------1-----------------1-----------------1--------1------| 
|------0----0------------2----0------------0----0------------2--------0--| 
|----2----------0------2----------0------2----------0------2--------2----|
|-3-----------2----0------------2----3------------2----0--------3--------|
|---------3-----------------3-----------------3--------------------------|

pre-chorus

|-------------------------------------------------------|
|-------------------------------------------------------|
|-5-5-5---------------------5-5-5-5-------------5-5-5-5-|
|-5-5-5-5-5-5-7-7-7-5-5-5-5-5-5-5-5-5-5-5-3-3-3-5-5-5-5-|
|-3-3-3-5-5-5-7-7-7-5-5-5-5-3-3-3-3-5-5-5-3-3-3-3-3-3-3-|
|-------3-3-3-5-5-5-3-3-3-3---------3-3-3-1-1-1---------|

chorus - played twice

pm________________________________________________|  
|-------------------------------------------------|
|-------------------------------------------------|
|-5-5-5-5-5-5-------------------------------------|
|-5-5-5-5-5-5-3-3-3-3-3-3-5-5-5-5-5-5-2-2-2-2-2-2-|
|-3-3-3-3-3-3-3-3-3-3-3-3-5-5-5-5-5-5-2-2-2-2-2-2-|
|-------------1-1-1-1-1-1-3-3-3-3-3-3-0-0-0-0-0-0-|

chorus riff

|-----------------------------------------------|
|-----------------------------------------------|
|-/5-5-5-5--/5-5-5-5^--/4-4-4-4-4-4---1-1-1-1-1-|
|-----------------------------------------------|
|-----------------------------------------------|
|-----------------------------------------------|

lyrics

birds sing, there's not a cloud in the sky 
august 8th is such a beautiful day
i see a bunch of hippies crying yeah august 8th is a beautiful day
like waking up from a real bad dream, suddenly everything is ok
the storm has passed, the sun is shining 
yeah august 8th is such a beautiful day
what's goin' on, what's goin' on, is something bummin your scene
there's something wrong, there's something wrong
i'm not tryin' to be mean
the air's sweet, the summer flowers bloomin', 
nowhere in sight is anything grey
feelings of joy are filling the street, yeah beautiful day
like waking up from a fucked up dream, suddenly everything's looking good
there's been no permanent damage done
yeah august 8th came right when it should



Important: The song above is NOT stored on the Chordie server. The original song is hosted at www.xguitar.com. Chordie works as a search engine and provides on-the-fly formatting. Chordie does not index songs against artists'/composers' will. To remove this song please click here.

This song is displayed as text-only. Transposing and tuning is only available for chordpro-songs.

Login - add to songbook

Rating click stars to rate

Layout
Accuracy

SHARE PAGE  




You need to log in to post comments