Guitar Tabs, Chords and Lyrics


Love Story   Nofx




Date: Fri, November 7 1997 

Group: NOFX
Album: Heavy Petting Zoo
Released: 1996 epitaph records
Track: 9
Title: love story

pm - palm mute
verse - just keeping playing it

pm________________________________________________________________
|-----------------------------------------------------------------
|-----------------------------------------------------------------
|---------5-5-5-5-7-7-7-7-7-7-7-7---------5-5-5-5-3-3-3-3-3-3-3-3-
|-3-3-3-3-5-5-5-5-7-7-7-7-7-7-7-7-3-3-3-3-5-5-5-5-3-3-3-3-3-3-3-3-
|-3-3-3-3-3-3-3-3-5-5-5-5-5-5-5-5-3-3-3-3-3-3-3-3-1-1-1-1-1-1-1-1-
|-1-1-1-1-------------------------1-1-1-1-------------------------

pm____________________________________________|
 ---------------------------------------------|
 ---------------------------------------------|
 ---------5-5-5-5-----3-3-3-3-5-5-5-5-5-5-5-5-|
 -3-3-3-3-5-5-5-5-5-5-3-3-3-3-5-5-5-5-5-5-5-5-|
 -3-3-3-3-3-3-3-3-5-5-1-1-1-1-3-3-3-3-3-3-3-3-|
 -1-1-1-1---------3-3-------------------------|

chorus

|-----------------------------------------------------------------------|
|-------6-------------6-------------4-------------4-------------6-------|
|-----7---7---------7---7---------5---5---------5---5---------7---7-----|
|---7-------7-----7-------7-----5-------5-----5-------5-----7-------7---|
|-5-----------5-5-----------5-3-----------3-3-----------3-5-----------5-|
|-----------------------------------------------------------------------|

then when it hits the fast part just play the verse faster with no pm

lyrics

partly owned their house, wooden white picket fence
mother waits for father in a backless dress
never used a diaphragm, put back into its case
a one way trip down memory lane as she awaits
i don't wanna know, cheat me
children play in the yard, mother stares at the wall
father says he's gonna be back late so don't wait up
about a quarter to three, father stares at a wall
stained thicker than water, who's gonna clean it up?



Important: The song above is NOT stored on the Chordie server. The original song is hosted at www.xguitar.com. Chordie works as a search engine and provides on-the-fly formatting. Chordie does not index songs against artists/composers will. To remove this song please click here.

This song is displayed as text-only. Transposing and tuning is only available for chordpro-songs.

Login - add to songbook

Rating click stars to rate

Layout
Accuracy

SHARE PAGE  




You need to log in to post comments