Guitar Tabs, Chords and Lyrics


East Bay   Nofx




Date: Fri, October 17 1997 

Group: NOFX 
Album: Ribbed
Released: 1991 epitaph records
Track: 6
Title: el lay

p - pull off
intro/post verse

|---------------------------------|
|---------------------------------|
|-----5-------5-------5-------5---|
|-7-3-5-5-7-3-5-5-7-3-5-5-7-3-5-5-|
|-7-3-3-5-7-3-3-5-7-3-3-5-7-3-3-5-|
|-5-1---3-5-1---3-5-1---3-5-1---3-|

verse - played a few times

|---------------------------------|
|---------------------------------|
|---------------------------------|
|---------------------------------|
|-----------------3-3-3-3---------|
|-5-5-5-5-1-1-1-1---------3-3-3-3-|

then play...

|-------------------------|
|-------------------------|
|-------------------------|
|-3-3-3-3-3-3-3-3-3-3-3-3-|
|-3-3-3-3-3-3-3-3-3-3-3-3-|
|-1-1-1-1-1-1-1-1-1-1-1-1-|

riff

|---------------------------------------|
|---------------------------------------|
|-----5---------------------------------|
|-7-3-5-5-------------------------------|
|-7-3-3-5-3-5p3-3-5p3-3-5p3-3-5p3-3-5p3-|
|-5-1---3-------------------------------|

verse 2 - played a few times

|---------------------------------|
|---------------------------------|
|---------------------------------|
|---------------------------------|
|-----------------5-5-5-5---------|
|-7-7-7-7-3-3-3-3---------5-5-5-5-|

and after that...

|-------------------------|
|-------------------------|
|-------------------------|
|-5-5-5-5-5-5-5-5-5-5-5-5-|
|-5-5-5-5-5-5-5-5-5-5-5-5-|
|-3-3-3-3-3-3-3-3-3-3-3-3-|

then...

|-----------------|
|-----------------|
|-----7-------7---|
|-9-5-7-7-9-5-7-7-|
|-9-5-5-7-9-5-5-7-|
|-7-3---5-7-3---5-|

riff 2

|-----------------------------------------------------------|
|----------10-------------------12-10----10-12--------------|
|-11-9-7------11-9-11p9---11-11-------11-------12-12-11-9-7-|
|--------9--------------9-----------------------------------|
|-----------------------------------------------------------|
|-----------------------------------------------------------|

riff 3 

|-------------------------------|
|-------------------------------|
|-----7---------------------9---|
|-9-5-7-7-------------------9-9-|
|-9-5-5-7-5-7p5-5-7p5-5-7p5-7-9-|
|-7-3---5---------------------7-|

lyrics

get out of my way, can't you see i'm from l.a? 
yeah, i met slash, i've got a rose tattoo, 
i bet i know way more people than you
i just love this town, my girlfriend weighs 84 pounds
met her at the cathouse where i get in for free
she pays the rent while i watch tv
when we go out tonight, gotta get my hair just right
tight black pants and blue suede shoes
i'll get my picture in rock city news
gotta get those flyers out, might meet a talent scout
and he will talk contracts with me, my fame and fortune and mtv



Important: The song above is NOT stored on the Chordie server. The original song is hosted at www.xguitar.com. Chordie works as a search engine and provides on-the-fly formatting. Chordie does not index songs against artists/composers will. To remove this song please click here.

This song is displayed as text-only. Transposing and tuning is only available for chordpro-songs.

Login - add to songbook

Rating click stars to rate

Layout
Accuracy

SHARE PAGE  




You need to log in to post comments