Guitar Tabs, Chords and Lyrics


Jaundiced Eye   Nofx




Date: Sun, October 5 1997

Group: NOFX 
Album: S & M Airlines
Released: 1989 epitaph records
Track: 11
Title: jaundiced eye

pm - palm mute (play with pm until the line above stops, then release pm) 
intro

|---------------------------------------------------------------------|
|---------------------------------------------------------------------|
|---------------------------------------------------------------------|
|-10-7-7-7-7-7-7-7-10-7-7-7-7-7-7-7-10-7-7-7-7-7-7-7-10-7-7-7-7-7-7-7-|
|-10-7-7-7-7-7-7-7-10-7-7-7-7-7-7-7-10-7-7-7-7-7-7-7-10-7-7-7-7-7-7-7-|
|--8-5-5-5-5-5-5-5--8-5-5-5-5-5-5-5--8-5-5-5-5-5-5-5--8-5-5-5-5-5-5-5-|

then...

|--------------------------------------------------------------------------|
|--------------------------------------------------------------------------|
|-9-7-9-10-12-10-12-14-9-7-9-10-12-10-9-9-7-9-10-12-10-12-14-9-7-9-12-10-9-|
|-9-7-9-10-12-10-12-14-9-7-9-10-12-10-9-9-7-9-10-12-10-12-14-9-7-9-12-10-9-|
|-7-5-7--8-10--8-10-12-7-5-7--8-10--8-7-7-5-7--8-10--8-10-12-7-5-7-10--8-7-|
|--------------------------------------------------------------------------|

|---------------------------------------------------------------------------|
|---------------------------------------------------------------------------|
|-9-7-9-10-12-10-12-14-9-7-9-10-12-10-9-9-7-9-10-12-10-12-14-9-7-9-10-10-10-|
|-9-7-9-10-12-10-12-14-9-7-9-10-12-10-9-9-7-9-10-12-10-12-14-9-7-9-10-10-10-|
|-7-5-7--8-10--8-10-12-7-5-7--8-10--8-7-7-5-7--8-10--8-10-12-7-5-7--8--8--8-|
|---------------------------------------------------------------------------|

next...

|----------------------------------------------------------------------|
|----------------------------------------------------------------------|
|------------7-7-5------------7-7-5-------------7-7-5------------7-7-5-|
|-10-7-7-7-7-7-7-5-10-7-7-7-7-7-7-5-10-7-7-7-7--7-7-5-10-7-7-7-7-7-7-5-|
|-10-7-7-7-7-5-5-3-10-7-7-7-7-5-5-3-10-7-7-7-7--5-5-3-10-7-7-7-7-5-5-3-|
|--8-5-5-5-5--------8-5-5-5-5--------8-5-5-5-5---------8-5-5-5-5-------|

after that...

|-----------------------------------------------------------------|
|-----------------------------------------------------------------|
|-12-10-8-10-9-7------------------12-10-9-10-9-7------------------|
|-12-10-8-10-9-7-10-7-7-7-7-7-7-7-12-10-9-10-9-7-10-7-7-7-7-7-7-7-|
|-10--8-7--8-7-5-10-7-7-7-7-7-7-7-10--8-7--8-7-5-10-7-7-7-7-7-7-7-|
|-----------------8-5-5-5-5-5-5-5-----------------8-5-5-5-5-5-5-5-|

|-----------------------------------------------------------------|
|-----------------------------------------------------------------|
|-12-10-8-10-9-7------------------12-10-9-10-9-7-10-9-10-9-7------|
|-12-10-8-10-9-7-10-7-7-7-7-7-7-7-12-10-9-10-9-7-10-9-10-9-7-10---|
|-10--8-7--8-7-5-10-7-7-7-7-7-7-7-10--8-7--8-7-5--8-7--8-7-5-10---|
|-----------------8-5-5-5-5-5-5-5-----------------------------8---|

and later on...

|----------------------------------------------------------------------|
|----------------------------------------------------------------------|
|------------7-7-5------------7-7-5-------------7-7-5-10-9-10-9-7------|
|-10-7-7-7-7-7-7-5-10-7-7-7-7-7-7-5-10-7-7-7-7--7-7-5-10-9-10-9-7-10---|
|-10-7-7-7-7-5-5-3-10-7-7-7-7-5-5-3-10-7-7-7-7--5-5-3--8-7--8-7-5-10---|
|--8-5-5-5-5--------8-5-5-5-5--------8-5-5-5-5---------------------8---|

later still...

|--------------------------|
|--------------------------|
|------------6-6-4-6-4-7-6-|
|-7--7--7--7-6-------------|
|-7--7--7--7-4-------------|
|-5--5--5--5---------------|

verse
pm_______________|               |_______________|
|-----------------------------------------------------------------|
|-----------------------------------------------------------------|
|------------------6--6-4-6-4-7-6------------------6--6-4-6-4-7-6-|
|-9-9-9-9-9-9-9-9--6--------------9-9-9-9-9-9-9-9--6--------------|
|-9-9-9-9-9-9-9-9--4--------------9-9-9-9-9-9-9-9--4--------------|
|-7-7-7-7-7-7-7-7-----------------7-7-7-7-7-7-7-7-----------------|

then...

|---------------------------------------------------------------------|
|---------------------------------------------------------------------|
|-5-5-5-5---------10-10-10-10-7-7-7-7-----------------5-5-5-5-7-7-7-7-|
|-5-5-5-5-7-7-7-7-10-10-10-10-7-7-7-7-7-7-7-7-7-7-7-7-5-5-5-5-7-7-7-7-|
|-3-3-3-3-7-7-7-7--8--8--8--8-5-5-5-5-7-7-7-7-7-7-7-7-3-3-3-3-5-5-5-5-|
|---------5-5-5-5---------------------5-5-5-5-5-5-5-5-----------------|

|--------------------------------------------------------|
|--------------------------------------------------------|
|-5-5-10-10-10-10-10-10-10-10-----14-12-----12-10-----12-|
|-5-5-10-10-10-10-10-10-10-10-7-7-14-12-7-7-12-10-7-7-12-|
|-3-3--8--8--8--8--8--8--8--8-7-7-12-10-7-7-10--8-7-7-10-|
|-----------------------------5-5-------5-5-------5-5----|

later on...

|-----------------------------------------|
|-----------------------------------------|
|-5-5-10-9-10-7-5--7-9--9-5-7-10-10-10-10-|
|-5-5-10-9-10-7-5--7-9--9-5-7-10-10-10-10-|
|-3-3--8-7--8-5-3--5-7--7-3-5--8--8--8--8-|
|-----------------------------------------|

and after that...

|---------------------------------------------------------------------|
|---------------------------------------------------------------------|
|-5-5-5-5---------10-10-10-10-7-7-7-7-----------------5-5-5-5-7-7-7-7-|
|-5-5-5-5-7-7-7-7-10-10-10-10-7-7-7-7-7-7-7-7-7-7-7-7-5-5-5-5-7-7-7-7-|
|-3-3-3-3-7-7-7-7--8--8--8--8-5-5-5-5-7-7-7-7-7-7-7-7-3-3-3-3-5-5-5-5-|
|---------5-5-5-5---------------------5-5-5-5-5-5-5-5-----------------|

and then...

|-----------------------------------------------------------------------|
|-----------------------------------------------------------------------|
|-5-5-10-10-10-10-----14-12-----12-10-----12-----14-12-----12-10-----12-|
|-5-5-10-10-10-10-7-7-14-12-7-7-12-10-7-7-12-7-7-14-12-7-7-12-10-7-7-12-|
|-3-3--8--8--8--8-7-7-12-10-7-7-10--8-7-7-10-7-7-12-10-7-7-10--8-7-7-10-|
|-----------------5-5-------5-5-------5-5----5-5-------5-5-------5-5----|

outro

|-------------------------------|
|-------------------------------|
|-10-9-10-9-7-5-10-9-10-9-7-5---|
|-10-9-10-9-7-5-10-9-10-9-7-5-7-|
|--8-7--8-7-5-3--8-7--8-7-5-3-7-|
|-----------------------------5-|

lyrics

black is beautiful white is so pure 
can you see a difference? all i see's a blur
is one called a virtue how can you be sure
ignorance the disease education the cure
so how can you say that your proud of you race
proud of your gender or proud of your faith
facism, racism all starts out the same
stop feeding the fire and smother the flame
some people are smarter then others so dumb
the reason behind this a cultural one
and greatness isn't carried by blood
so get off your high horse you're no better then us
all seems infected that the infected spy
as all looks yellow to the jaundiced eye
you're the infected you can never deny
you're arrogant, you're insolent, you're living a lie



Important: The song above is NOT stored on the Chordie server. The original song is hosted at www.xguitar.com. Chordie works as a search engine and provides on-the-fly formatting. Chordie does not index songs against artists'/composers' will. To remove this song please click here.

This song is displayed as text-only. Transposing and tuning is only available for chordpro-songs.

Login - add to songbook

Rating click stars to rate

Layout
Accuracy

SHARE PAGE  




You need to log in to post comments