Guitar Tabs, Chords and Lyrics


All Outta Angst   Nofx




Date: Sat, November 22 1997

Group: NOFX
Album: so long and thanks for all the shoes
Released: 1997 epitaph records
Track: 7 
Title: all outta angst
ska-riff

|-7--7--7--7--7--7--7--7--5--5--5--5--5--5--5--5--2--2--2--2--2--2--2--2--
|-8--8--8--8--8--8--8--8--6--6--6--6--6--6--6--6--3--3--3--3--3--3--3--3--
|-7--7--7--7--7--7--7--7--5--5--5--5--5--5--5--5--2--2--2--2--2--2--2--2--
|-------------------------------------------------------------------------
|-------------------------------------------------------------------------
|-------------------------------------------------------------------------

 -2--2--2--2--2--2--2--2--|-2-------2-|
 -3--3--3--3--3--3--3--3--|---2---2---|
 -2--2--2--2--2--2--2--2--|-----2-----|
 -------------------------|-----------|
 -------------------------|-----------|
 -------------------------|-----------|

riff with distortion

|-------------|
|-------------|
|-------------|
|-7--5--3--5--|
|-7--5--3--5--|
|-5--3--1--3--|

lyrics

i'm not insane, i'm not bummed out, i got no one to blame
nothing to change, i got no evil to fight
one thing's for sure, i'm all outta angst, society don't bother me
and there's something wrong with that
so i'm off to pakistan, learn the laws of islam
fundamentalism, forget that rock-n-roll, no cigarette, no drink, in fact
it's difficult to think about getting laid
when you don't even get to see her face, i'm not insane
i'm not insane, i'm not liquored, i got nothin' to do, nothin' to lose
i got no place to call home, one thing's for sure, i'm all outta angst
society don't bother me, there's something wrong with that
next stop mongolia, don't get to golf or fuck or bowl with 'ya
throw out that handicap, no stepping out, till spring, in fact it's 
difficult to sing when it's 20 below
and that's during the day, i'm not insane



Important: The song above is NOT stored on the Chordie server. The original song is hosted at www.xguitar.com. Chordie works as a search engine and provides on-the-fly formatting. Chordie does not index songs against artists'/composers' will. To remove this song please click here.

This song is displayed as text-only. Transposing and tuning is only available for chordpro-songs.

Login - add to songbook

Rating click stars to rate

Layout
Accuracy

SHARE PAGE  




You need to log in to post comments