Guitar Tabs, Chords and Lyrics


13 Stitches   Nofx



Band:Nofx
Song:13-Stitches
Album:War on Errorism
Tabbed by:Vito Zaccagnino


into-verse:
e-------------------------
b-------------------------
g-------------------------
d---5---7---10---5--------
a---5---7---10---5--------
E---3---5----8---3--------


chorus:
e--------------------------
b--------------------------
g---7-------5--------------
d---7---2---5---5----------
a---5---2---3---5----------
E-------0-------3----------

tromba part
e--------------------------------------------------------------------
b---------------------------------17-17---17-17---15--13--12---------
g---11-11---11-11--9--11--12--9--------------------------------------
d--------------------------------------------------------------------
a--------------------------------------------------------------------
e--------------------------------------------------------------------

tromba part
e--------------------------------------------------------------------
d---------------------------------12--13-13--13-13--13-13--12--10-10-
g---11-11---11-11--9--11--12--9--------------------------------------
d--------------------------------------------------------------------
a--------------------------------------------------------------------


Important: The song above is NOT stored on the Chordie server. The original song is hosted at www.xguitar.com. Chordie works as a search engine and provides on-the-fly formatting. Chordie does not index songs against artists'/composers' will. To remove this song please click here.

This song is displayed as text-only. Transposing and tuning is only available for chordpro-songs.

Login - add to songbook

Rating click stars to rate

Layout
Accuracy

SHARE PAGE  




You need to log in to post comments