Guitar Tabs, Chords and Lyrics


American Errorist (I Hate Hate Haters)   Nofx



NOFX - American Errorist (I Hate Hate Haters)
Tabbed By: devin
Email: super_d_man2000@hotmail.com

Tuning: Standard (E A D G B E)



NOFX-American Errorist (I Hate Hate Haters)
The War On Errorism

 Intro
  Guitar 1 and 2 (Distortion)
E|------------------|------------------|------------------|------------------||
B|------------------|------------------|------------------|------------------||
G|-9-9-x-x-x-x-x-x--|-9-9-x-x-x-x-x-x--|-9-9-x-x-x-x-x-x--|-9-9-x-x-x-x-x-x--||
D|-9-9-x-x-x-x-x-x--|-9-9-x-x-x-x-x-x--|-9-9-x-x-x-x-x-x--|-9-9-x-x-x-x-x-x--||
A|-7-7-x-x-x-x-x-x--|-7-7-x-x-x-x-x-x--|-7-7-x-x-x-x-x-x--|-7-7-x-x-x-x-x-x--||
E|-0-0-x-x-x-x-x-x--|-0-0-x-x-x-x-x-x--|-0-0-x-x-x-x-x-x--|-0-0-x-x-x-x-x-x--||
 Pre-verse
  Guitar 1 (Clean)
E|------------------|------------------|------------------|------------------||
B|------------------|------------------|------------------|------------------||
G|------------------|------------------|------------------|------------------||
D|-----------0---2--|-----------0---2--|---5---2---0---2--|---5---2---0---2--||
A|---2---2----------|---2---2----------|------------------|------------------||
E|-00--00--00--00---|-00--00--00--00---|-00--00--00--00---|-00--00--00--00---||
   P.M.--------------------------------------------------------------------
  Guitar 2 (Clean)
E|------------------|------------------|------------------|------------------||
B|------------------|------------------|------------------|------------------||
G|------------------|------------------|------------------|------------------||
D|------------------|------------------|------------------|---------5-5------||
A|-2-2-2-2-5-5-7-7--|-2-2-2-2-5-5-7-7--|-2-2-2-2-5-5-7-7--|-2-2-2-2-5-5------||
E|-0-0-0-0-3-3-5-5--|-0-0-0-0-3-3-5-5--|-0-0-0-0-3-3-5-5--|-0-0-0-0-3-3------||
   P.M.-------------------------------------------------------------
 Verse 1
  Guitars 1 and 2 (Distortion)
E|------------------|------------------|------------------|------------------||
B|------------------|------------------|------------------|-----------------o||
G|-9-9-9-9-9-9-9-9--|-9-9-9-9-9-9-9-9--|-5-5-5-5-5-5-5-5--|-5-5-5-5-5-5-5-5--||
D|-9-9-9-9-9-9-9-9--|-9-9-9-9-9-9-9-9--|-5-5-5-5-5-5-5-5--|-5-5-5-5-5-5-5-5-o||
A|-7-7-7-7-7-7-7-7--|-7-7-7-7-7-7-7-7--|-3-3-3-3-3-3-3-3--|-3-3-3-3-3-3-3-3--||
E|------------------|------------------|------------------|------------------||
 Chorus
  Guitars 1 and 2 (Distortion)
E|------------------|------------------|------------------|------------------||
B|------------------|------------------|------------------|------------------||
G|------------------|------------------|-9-9-9-9-9-9-9-9--|------------------||
D|-5-5-5-5-5-5-5-5--|-5-5-5-5-5-5-5-5--|-9-9-9-9-9-9-9-9--|-1010101010101010-||
A|-5-5-5-5-5-5-5-5--|-5-5-5-5-5-5-5-5--|-7-7-7-7-7-7-7-7--|-1010101010101010-||
E|-3-3-3-3-3-3-3-3--|-2-2-2-2-2-2-2-2--|------------------|-8-8-8-8-8-8-8-8--||
 Pre-verse
  Guitar 1 (Clean)
E|------------------|------------------|------------------|------------------||
B|------------------|------------------|------------------|------------------||
G|------------------|------------------|------------------|------------------||
D|-----------0---2--|-----------0---2--|---5---2---0---2--|---5---2---0---2--||
A|---2---2----------|---2---2----------|------------------|------------------||
E|-00--00--00--00---|-00--00--00--00---|-00--00--00--00---|-00--00--00--00---||
   P.M.--------------------------------------------------------------------
  Guitar 2 (Clean)
E|------------------|------------------|------------------|------------------||
B|------------------|------------------|------------------|------------------||
G|------------------|------------------|------------------|------------------||
D|------------------|------------------|------------------|---------5-5------||
A|-2-2-2-2-5-5-7-7--|-2-2-2-2-5-5-7-7--|-2-2-2-2-5-5-7-7--|-2-2-2-2-5-5------||
E|-0-0-0-0-3-3-5-5--|-0-0-0-0-3-3-5-5--|-0-0-0-0-3-3-5-5--|-0-0-0-0-3-3------||
   P.M.-------------------------------------------------------------
 Verse 2
  Guitars 1 and 2 (Distortion)
E|------------------|------------------|------------------|------------------||
B|------------------|------------------|------------------|-----------------o||
G|-9-9-9-9-9-9-9-9--|-9-9-9-9-9-9-9-9--|-5-5-5-5-5-5-5-5--|-5-5-5-5-5-5-5-5--||
D|-9-9-9-9-9-9-9-9--|-9-9-9-9-9-9-9-9--|-5-5-5-5-5-5-5-5--|-5-5-5-5-5-5-5-5-o||
A|-7-7-7-7-7-7-7-7--|-7-7-7-7-7-7-7-7--|-3-3-3-3-3-3-3-3--|-3-3-3-3-3-3-3-3--||
E|------------------|------------------|------------------|------------------||
 Chorus
  Guitars 1 and 2 (Distortion)
E|------------------|------------------|------------------|------------------||
B|------------------|------------------|------------------|------------------||
G|------------------|------------------|-9-9-9-9-9-9-9-9--|------------------||
D|-5-5-5-5-5-5-5-5--|-5-5-5-5-5-5-5-5--|-9-9-9-9-9-9-9-9--|-1010101010101010-||
A|-5-5-5-5-5-5-5-5--|-5-5-5-5-5-5-5-5--|-7-7-7-7-7-7-7-7--|-1010101010101010-||
E|-3-3-3-3-3-3-3-3--|-2-2-2-2-2-2-2-2--|------------------|-8-8-8-8-8-8-8-8--||
  Guitar 1 and 2 (Distortion)
E|------------------|------------------|------------------|------------------||
B|------------------|------------------|------------------|------------------||
G|-9-9-x-x-x-x-x-x--|-9-9-x-x-x-x-x-x--|-9-9-x-x-x-x-x-x--|-9-9-x-x-x-x-x-x--||
D|-9-9-x-x-x-x-x-x--|-9-9-x-x-x-x-x-x--|-9-9-x-x-x-x-x-x--|-9-9-x-x-x-x-x-x--||
A|-7-7-x-x-x-x-x-x--|-7-7-x-x-x-x-x-x--|-7-7-x-x-x-x-x-x--|-7-7-x-x-x-x-x-x--||
E|-0-0-x-x-x-x-x-x--|-0-0-x-x-x-x-x-x--|-0-0-x-x-x-x-x-x--|-0-0-x-x-x-x-x-x--||
 Guitar Solo/Interlude
  Guitar 1 (Distortion w/Wah-Wah)
E|---7-5---5--------|---7-5---5--------|---7-5---5--------|---7-5---5-7------||
B|-5-----8---8-5-8--|-5-----8----------|-5-----8---8-5-8--|-5-----8---------o||
G|------------------|------------------|------------------|------------------||
D|------------------|------------------|------------------|-----------------o||
A|------------------|------------------|------------------|------------------||
E|------------------|------------------|------------------|------------------||
  Guitar 2
E|------------------|------------------|------------------|------------------||
B|------------------|------------------|------------------|-----------------o||
G|-9----------------|--------------(9)-|-5----------------|--------------(5)-||
D|-9----------------|--------------(9)-|-5----------------|--------------(5)o||
A|-7----------------|--------------(7)-|-3----------------|--------------(3)-||
E|------------------|------------------|------------------|------------------||
  Guitar 1
E|---7-5------------|---7-5---5--------|------------------|------------------||
B|-5-----5-8-5-5-8--|-5-----8---8------|----------------5-|------------------||
G|------------------|-------------765--|------------------|-7-5--------------||
D|------------------|------------------|-7-7b9-------(9)--|-----7-5-5h7p5----||
A|------------------|------------------|------------------|---------------7--||
E|------------------|------------------|------------------|------------------||
  Guitar 2
E|------------------|------------------|------------------|------------------||
B|------------------|------------------|------------------|------------------||
G|------------------|------------------|-9------------(9)-|-5------------(5)-||
D|-5------------(5)-|-5------------(5)-|-9------------(9)-|-5------------(5)-||
A|-5------------(5)-|-5------------(5)-|-7------------(7)-|-3------------(3)-||
E|-3------------(3)-|-2------------(2)-|------------------|------------------||
 Ending
  Guitar 1 and 2 (Distortion)
E|------------------|------------------|------------------|------------------||
B|------------------|------------------|------------------|------------------||
G|-9-9-x-x-x-x-x-x--|-9-9-x-x-x-x-x-x--|-9-9-x-x-x-x-x-x--|------------------||
D|-9-9-x-x-x-x-x-x--|-9-9-x-x-x-x-x-x--|-9-9-x-x-x-x-x-x--|-5-5-5-5/7-7------||
A|-7-7-x-x-x-x-x-x--|-7-7-x-x-x-x-x-x--|-7-7-x-x-x-x-x-x--|-5-5-5-5/7-7------||
E|-0-0-x-x-x-x-x-x--|-0-0-x-x-x-x-x-x--|-0-0-x-x-x-x-x-x--|-3-3-3-3/5-5------||
                                                            P.M.-------


Important: The song above is NOT stored on the Chordie server. The original song is hosted at www.xguitar.com. Chordie works as a search engine and provides on-the-fly formatting. Chordie does not index songs against artists'/composers' will. To remove this song please click here.

This song is displayed as text-only. Transposing and tuning is only available for chordpro-songs.

Login - add to songbook

Rating click stars to rate

Layout
Accuracy

SHARE PAGE  




You need to log in to post comments