Chordie logo

I Wanna Be Your Baby   Nofx




Date: Thurs, October 16 1997

Group: NOFX
Album: White Trash, Two Heebs and a Bean
Released: 1992 epitaph records
Track: 10
Title: i wanna be your baby

pm - palm mute - |____|
verse - played with two rhythms the second uses palm mute

|-----------------------|
|-----------------------|
|-----------------------|
|-4-4--5-5--5-5-5-5-7-7-|
|-4-4--5-5--5-5-5-5-7-7-|
|-2-2--3-3--3-3-3-3-5-5-|

chorus - remember pm |___|

    |___________|            |___________|            |___________|
|-------------------------------------------------------------------
|-------------------------------------------------------------------
|-------------------------------------------------------------------
|-4--4-4-4-4-4-4--4-7-7-7--4--4-4-4-4-4-4--4-4-4-4--4--4-4-4-4-4-4--
|-4--4-4-4-4-4-4--4-7-7-7--4--4-4-4-4-4-4--4-4-4-4--4--4-4-4-4-4-4--
|-2--2-2-2-2-2-2--2-5-5-5--2--2-2-2-2-2-2--2-2-2-2--2--2-2-2-2-2-2--

 ------------------------------------------|
 ------------------------------------------|
 ----------7-7-7-7-7-7-7-7-----------------|
 -4-7-7-7--7-7-7-7-7-7-7-7-5-5-5-5-5-5-5-5-|
 -4-7-7-7--5-5-5-5-5-5-5-5-5-5-5-5-5-5-5-5-|
 -2-5-5-5------------------3-3-3-3-3-3-3-3-|

riff - played throughout song

|-----------------------|
|-----------------------|
|-----------------------|
|-4-4-2-2-5-5-4-4--4--4-|
|-----------------------|
|-----------------------|

lyrics

open your self, let me inside, open your arms, i have no where
to go, so let me into you, i need to be where nothing can hurt me
open your legs, to let me crawl inside of you i need to be
inside your womb, so take me home, inside of you, envelope me, i'm home
i wanna be your baby, bringin' me down, bringin' me down
open your lips and take me in, i need to be inside within
let me become a part of you, let me inside of you, swallow me whole
i want to know the things you hide, i want to feel the things you feel
i want to breathe the air you breathe, i want to live inside of you, take me
bringin' me down, i wanna be your baby, let me live inside



Important: The song above is NOT stored on the Chordie server. The original song is hosted at www.xguitar.com. Chordie works as a search engine and provides on-the-fly formatting. Chordie does not index songs against artists/composers will. To remove this song please click here.

This song is displayed as text-only. Transposing and tuning is only available for chordpro-songs.

Login - add to songbook

Rating click stars to rate

Layout
Accuracy

SHARE PAGE  



You need to log in to post comments