Guitar Tabs, Chords and Lyrics


Stand By Me  Oasis

   [B7add11]                                                                                                         
e-----------0--------------------------------------
B--0---0------0---0--------------------------------
G--2---2--2-----2-2--------------------------------D--1---1--1-------1--------------------------------
A--2---2----------2--------------------------------
E--------------------------------------------------

Intro
=====
e--------------------------------------------------
B--------------------------------------------------
G--------------------------------------------------
D--------------------------------------------------
A--------------------------------------------------

E--12~~/-3~~~~~~~~~~~~~~-(amplifier feedback here)-
  [G]      [B7add11]           [C]    [C/B]              [D]                            [G]                                           
e------------------------------------------------------------------------------
B------------------------------------------------------------------------------
G----------------------------12--14--14b16r-14b16r14--12h14--12--12~~~~12--12--
D----------------------12h14---------------------------------------------------
A------------------------------------------------------------------------------
E------------------------------------------------------------------------------

   [B7add11]                   [C]     [C/B]                 [D]                                                                
e------------------------------------------------------------------------------
B------------------------------------------------------------------------------
G--11----------12----12~~---------12h14-12--14bbb16---14b16r14--12h14--12-12~>-
D--------12h14----14--------12h14----------------------------------------------
A------------------------------------------------------------------------------
E------------------------------------------------------------------------------

Verse 1
-------

[G]  Made a meal and threw it [B7add11]up on Sunday I[C]'ve
Got a [C/B]lot of things to [D]learn
[G]  Said I would and I'll be [B7add11]leaving one day
Be[C]fore my heart [C/B]starts to [D]burn
Pre-Chorus:
-----------

             [C]   So what's the matter with [D]you
e---------------------------------------------------------------------------
B---------------------------------------------------------------------------
G-14>-----------------------------------------------------------------------
D--x-------------------------------5--7-------------------------------------
A-12>--0--2--3----------------5s7--------5----------------------------------
E---------------------------------------------------------------------------

         [G]   Sing me [D/F#]something [Em]new      don't you know
e---------------------------------------------------------------------------
B---------------------------------------------------------------------------
G---------------------------------------------------------------------------
D-----5---------------------------------------------------------------------
A-5h7-----------------------------------------------------------------------
E--------3----------2---------0---------------------------------------------

  The [A]cold and wind and rain don't know  [C]They only seem to come
e---------------------------------------------------------------------------
B---------------------------------------------------------------------------
G---------------------------------------------------------------------------
D---------------------------------------------------------------------------
A-----0-------------------------------2--3----------------------------------
E---------------------------------------------------------------------------

    and go a[D]way
e---------------------------------------------------------------------------
B---------------------------------------------------------------------------
G---------------------------------------------------------------0--0h2--0---
D----------------------------------------------------------0h2--------------
A-----------5---------------------------------------------------------------
E---------------------------------------------------------------------------

Verse 2
-------

Times are hard when things ain't got no meaning
I've found a key upon the floor
e-----------------------------------------------------------------------------
B-----------------------------------------------------------------------------
G--------------------------------------12h14--12--14b16r14--12h14--12--12~~~>-
D-------------------------------12h14-----------------------------------------
A-----------------------------------------------------------------------------
E-----------------------------------------------------------------------------

Maybe you and I will not believe in
The things we find behind the door
Pre-Chorus (Guitars 1 and 2 play the same thing as previous pre-chorus)
----------

So what's the matter with you
Sing me something new
Don't you know the cold and wind and rain don't know
They only seem to come and go away
e-------------------------------------------------------------------------
B-------------------------------------------------------------------------
G---------------------------------------12h14-12----12-----14b16r14-12----
D---------------------------------12h14----------14--------------------14-
A-------------------------------------------------------------------------
E-------------------------------------------------------------------------

                 [G]                                                                                          
e----------------------------
B----------------------------
G-14b16r14-12----12~~~~~-----
D-------------14-------------
A----------------------------
E----------------------------

Chorus
------

[G]  Stand by [D]me, nobody       [Am]knows
e---------------------------------------
B---------------------------------------
G--------------14b16r14-12--14~~b16--12-
D---------------------------------------
A---------------------------------------
E---------------------------------------

the way it's gonna be[C] [F] [D/F#] [G]
e-------------------------------------------
B-------------------------------------------
G-------------------------------------------
D-------------------------------------------
A----------------------3-x-x----------------
E----------------------------1-x-x-2-x-x-3--

[G]  Stand by [D]me, nobody       [Am]knows
e---------------------------------------
B---------------------------------------
G--------------14b16r14-12--14~~b16--12-
D---------------------------------------
A---------------------------------------
E---------------------------------------

the way it's gonna be[C] [F] [D/F#] [G]
e-------------------------------------------
B-------------------------------------------
G-------------------------------------------
D-------------------------------------------
A----------------------3-x-x----------------
E----------------------------1-x-x-2-x-x-3--

[G]  Stand by [D]me, nobody       [Am]knows
e---------------------------------------
B---------------------------------------
G--------------14b16r14-12--14~~b16--12-
D---------------------------------------
A---------------------------------------
E---------------------------------------

the way it's gonna be[C] [F] [D/F#] [G]
e-------------------------------------------
B-------------------------------------------
G-------------------------------------------
D-------------------------------------------A----------------------3-x-x----------------
E----------------------------1-x-x-2-x-x-3--

[G]  Stand by [D]me, nobody       [Am]knows                               Yeah
e-------------------------------------------------------------------
B-------------------------------------------------------------------
G-------12-11--14b16r14-12--14~~b16--12--14b16r14-12--14~~b16--12---
D-12h14-------------------------------------------------------------
A-------------------------------------------------------------------
E-------------------------------------------------------------------

  Nobody        [C]knows                [D]       The way it's gonna [G]be
e--------------------------------------------------------------------
B--------------------------------------------------------------------
G-14b16r14-12--14~~b16--12--12---12--12/11--11/9--9/7--7--------0----
D---------------------------------------------------------------0----
A--------------------------------------------------------------------
E--------------------------------------------------------------------

                      [G]   (If you're...)
e-------------------------
B-------------------------
G----------0--------------
D-------0-----------------
A--2h3--------3--2--0-----
E----------------------3--

Verse 3
-------

If you're leaving will you take me with you
I'm tired of talking on my phone
e---------------------------------------------------------------------------
B---------------------------------------------------------------------------
G-----------------------------------------------12--14b16r14-12------12~~~>-
D---------------------------------------12--14-------------------14---------
A------------------------------10-12/14-------------------------------------
E---------------------------------------------------------------------------

There is one thing I can never give you
My heart will never be your home
e----------------------------------------------------
B----------------------------------------------------
G-------------------------------14b16-----b16r14--12-
D----------------------------------------------------
A----------------------------------------------------
E----------------------------------------------------

  [C]   So what's the matter with [D]you
e-----------------------------------
B-----------------------------------
G-12~~~~~~~~~~~-----12--12--12h14---
D-----------------------------------
A-----------------------------------
E-----------------------------------

Sing me something new
Don't you know the cold and wind and rain don't know
They only seem to
come and go away G
e---------------------------------------------------------------------------
B-------------------------------------------------------------12------------
G----------------------12--14---12----12----------12----------------12------
D---------------12h14--------------14-------12h14-------12h14----12---------
A---------------------------------------------------------------------------
E---------------------------------------------------------------------------

Chorus
------

[G]  Stand by [D]me, nobody       [Am]knows
e---------------------------------------
B---------------------------------------
G--------------14b16r14-12--14~~b16--12-
D---------------------------------------
A---------------------------------------
E---------------------------------------

the way it's gonna be[C] [F] [D/F#] [G]
e-------------------------------------------
B-------------------------------------------
G-------------------------------------------
D-------------------------------------------
A----------------------3-x-x----------------
E----------------------------1-x-x-2-x-x-3--

[G]  Stand by [D]me, nobody       [Am]knows
e---------------------------------------
B---------------------------------------
G--------------14b16r14-12--14~~b16--12-
D---------------------------------------
A---------------------------------------
E---------------------------------------

the way it's gonna be[C] [F] [D/F#] [G]
e-------------------------------------------
B-------------------------------------------
G-------------------------------------------
D-------------------------------------------
A----------------------3-x-x----------------
E----------------------------1-x-x-2-x-x-3--

[G]  Stand by [D]me, nobody       [Am]knows
e---------------------------------------
B---------------------------------------
G--------------14b16r14-12--14~~b16--12-
D---------------------------------------
A---------------------------------------
E---------------------------------------

the way it's gonna be[C] [F] [D/F#] [G]
e-------------------------------------------
B-------------------------------------------
G-------------------------------------------
D-------------------------------------------
A----------------------3-x-x----------------E----------------------------1-x-x-2-x-x-3--

[G]  Stand by [D]me, nobody       [Am]knows                               Yeah
e-------------------------------------------------------------------
B-------------------------------------------------------------------
G-------12-11--14b16r14-12--14~~b16--12--14b16r14-12--14~~b16--12---
D-12h14-------------------------------------------------------------
A-------------------------------------------------------------------
E-------------------------------------------------------------------

  Nobody        [C]knows                [D]       The way it's gonna[Em] be
e---------------------------------------------------------
B---------------------------------------------------------
G-14b16r14-12--14~~b16--12--12---12--12/11--11/9--9/7--7--
D---------------------------------------------------------
A---------------------------------------------------------
E---------------------------------------------------------

Bridge/Guitar Solo:
-------------------

     [Em]                   [D]           [C]   The way it's gonna be
e-------------------------------------------------------
B-------------------------------------------------------
G----11h12--11------------------------------------------
D---------------14--12--12h14--12--12-------------------
A-------------------------------------------------------
E-------------------------------------------------------

  [Em]                   [D]          [C]       Baby,       I can see
e-------------------------------------------------------------
B-------------------------------------------------------------
G-11h12--11----------------11--12----14b16r14-12-14b16r14-12--
D------------14--12----12-------------------------------------
A-------------------------------------------------------------
E-------------------------------------------------------------

  [Em]                   [D]           [C]      And don't you know the
e-------------------------------------------------------------
B-----------------------------------------faint:--------------
G-11h12--11------------------------12--12--------12-------12--
D------------14--12--12h14--12--14---------12h14----12h14-----
A-------------------------------------------------------------
E-------------------------------------------------------------

cold and wind and rain don't know
They only seem to come and go away (G)
e---------------------------------------------------------------------------
B---------------------------------------------------------------------------
G-----------------------------12-12/11-11/9-9/7-7/5-5/4-4/2-2p0-0-2-2bbb4---
D---------------------------------------------------------------------------
A---------------------------------------------------------------------------
E---------------------------------------------------------------------------

Final Chorus
------------

[G]  Stand by [D]me,   nobody       [Am]knows
e------------------------------------------
B------------------------------------------
G-------12--14---14b16r14--12--14~~b16-12--
D-12h14------------------------------------
A------------------------------------------
E------------------------------------------

the way it's gonna b[C]e[F] [D/F#] [G]
e-------------------------------------------------------------
B-------------------------------------------------------------
G-------------------14b16r14-12----12-14b16r14-12----12--12---
D-------------------------------14----------------14----------
A-------------------------------------------------------------
E-------------------------------------------------------------

[G]  Stand by [D]me,   nobody       [Am]knows
e------------------------------------------
B------------------------------------------
G-------12--14---14b16r14--12--14~~b16-12--
D-12h14------------------------------------
A------------------------------------------
E------------------------------------------

the way it's gonna b[C]e[F] [D/F#] [G]
e-------------------------------------------------------------
B-------------------------------------------------------------
G-------------------14b16r14-12----12-14b16r14-12----12--12---
D-------------------------------14----------------14----------
A-------------------------------------------------------------
E-------------------------------------------------------------

[G]  Stand by [D]me,   nobody       [Am]knows
e------------------------------------------
B------------------------------------------
G-------12--14---14b16r14--12--14~~b16-12--
D-12h14------------------------------------
A------------------------------------------
E------------------------------------------

the way it's gonna b[C]e[F] [D/F#] [G]
e-------------------------------------------------------------
B-------------------------------------------------------------
G-------------------14b16r14-12----12-14b16r14-12----12--12---
D-------------------------------14----------------14----------
A-------------------------------------------------------------
E-------------------------------------------------------------

[G]  Stand by [D]me, nobody       [Am]knows                               Yeah
e-------------------------------------------------------------------
B-------------------------------------------------------------------
G-------12-11--14b16r14-12--14~~b16--12--14b16r14-12--14~~b16--12---
D-12h14-------------------------------------------------------------
A-------------------------------------------------------------------
E-------------------------------------------------------------------

  God only [C]knows                      [D]  The way it's gonna [G]be
e---------------------------------------------------------------------------3-
B--------------------------------------------------------------------1p0--0---
G----------12--12/11--11/9--9/7--7/5--5/4--4/2--2p0--0--2--2bbbbb4------------
D-----------------------------------------------------------------------------
A-----------------------------------------------------------------------------
E-----------------------------------------------------------------------------


Important: The song above is NOT stored on the Chordie server. The original song is hosted at www.xguitar.com. Chordie works as a search engine and provides on-the-fly formatting. Chordie does not index songs against artists'/composers' will. To remove this song please click here.

Text color:
Chord color:
Chord grids: 
Font size:    
Page size: 

A Am C C/B D D/F# Em F G
variations - click chord images

Login - add to songbook

Transpose chords

Tuning

Rating click stars to rate

Layout
Accuracy

SHARE PAGE  




You need to log in to post comments

bigben12 (report)

http://www.xguitar.com/guitar-tabs/oasis/be_here_now/stand_by_me.txt

lines too far apart

86.141.181.31