Guitar Tabs, Chords and Lyrics


Supersonic  Oasis

[-----]Tab:
e--------0--------------------
B----------0------------------
G------2-----2-------2--------
D----4---------4-----2----1---     x3
A--4-------------0---0----2---
E-----------------------------

the fourth time:
b:bend
r:release
e--------0--------------------------
B----------0------------------------
G------2-----2-------2--------------
D----4---------4-----2--------------
A--4-------------0---0--2-2b3r2-0---
E---------------------------------2-

Here's a variation of the intro Noel plays live sometimes:
e--------0------------------------
B----------0------------------0---
G------2-----2-------2------2-----
D----4---------4-----2----1-------
A--4-------------0---0--2---------
E---------------------------------

And here's the rhythm for the Riff for the verses:
   [F#5]                        [A5]        [B5]                                        
e--------------------------------------
B--------------------------------------
G--------------------------2--2----4---
D--4--4--4--4--4--4--4--4--2--2----4---
A--4--4--4--4--4--4--4--4--0--0----2---
E--2--2--2--0--2--2--2--0--------------

Verse 1
-------

I need to [F#5]be myself[A5] [B5]
I can't be[F#5] no one else[A5] [B5]
I'm [F#5]feeling supersonic, [A5]give me gin & [B5]tonic
[F#5]you can have it all, but [A5]how much do you [B5]want it?
You [F#5]make me laugh[A5] [B5]
Give me your [F#5]autograph[A5] [B5]
Can I [F#5]ride with you in your [A5]Bee-Emm-Double-[B5]Yeww   (BMW)
You can [F#m]sail with me in my [A5]yellow subma[B5]rine
(NOTE: Noel alternates the same two background fills in the verses
throughout the entire song. He has two different fills that he plays
during each B5 in the verses.
The first fill: and the second fill:
	e--7----------			D--------------
	B------5------			A-2-2b3r2-0----
	G----------6--			E-----------2--

Pre-chorus
----------

You need to [E]find out, 'cos no one's gonna tell you
what I'm [F#5]on about
e----------------------------------------------
B----------------------------------------------
G----------------------------------------------
D--------4--4--4--4--4--4--4--4--4--4--4--4--4-
A--------4--4--4--4--4--4--4--4--4--4--4--4--4-
E--------2--2--2--0--2--2--2--0--2--2--2--0--2-

You need to [E]find a way for what you wanna say
[C#7]    But before tomorrow
Chorus
------

'Cos [D5]my friend [A5]said he'd [E5]take you [F#5]home
He si[D5]ts in the [A5]corner [E5]all al[F#5]one
[D5]He lives [A5]under a [E5]waterf[F#5]all
[D5]Nobody can [A5]see him
[E5]Nobody can [F#5]ever hear him call
(HERE's a little fill played over the chords in the chorus:
   [D5]         [A5]          [E5]        [F#5]                                            
e---------------------------------
B---------------------------------
G---------------------------------
D------2------------------2-------
A--2s4---4--2--0----2-2s4---4-----
E-----------------------------2---

Little solo-type thing used a number of times in this song:
-----------------------------------------------------------

b:bend
r:release
h:hammer on to second note with another finger, use only 1 pick stroke
p:pull-off, opposite of hammer-on, use 1 pick stroke, pull 2nd finger off
higher note to cause lower note to sound
part 1:
   [D5]        [A5]       [E5]           [F#5]                                                                                 
B-------------------------------------------------
G----16b17-16-14--16-14----------14---------------
D-----------------------16-14-16----16-14---------

part 2:
   [D5]        [A5]      [E5]           [F#5]                                                                              
B----------------17------------------------------------
G----16b17-16-14----16b17r16-14--------14h16-14----14--
D--------------------------------14h16----------16-----

part 3:
repeat part 1
part 4:
repeat part 2
part 5:
(NOTE: the tab below starts with the F#5 part of part 4)
(ANOTHER NOTE: Part 5 is something that Noel only plays in live shows and
is not in the recorded version of the song.)
  [F#5]                       [E]           [C#7]                                                                          
B-----------------------------------------------------------------------------
G--14--------14h16-14----14-----16p14-16p14-16p14-16b17-16b17-16--------------
D------14h16----------16------------------------------------------------------
A-------------------------------------------------------------------2b3r2-0---
E---------------------------------------------------------------------------2-

Verse 2
-------

You need to be yourself
You can't be no one else
I know a girl called Elsa
She's into Alka-Seltzer
She sniffs it through a cane
on a supersonic train
And she makes me laugh
I've got her autograph
She done it with the doctor
On a helicopter
She sniffed it in a tissue
Selling the big issue
Pre-chorus 2
------------

When she finds out
'cos no one's gonna tell her what I'm on about
You need find a way for what you wanna say
But before tomorrow
Chorus
Improvise on solo until the song fades (Noel uses very basic riffs using
basically the same few notes here, so it should be easy to figure out)

Important: The song above is NOT stored on the Chordie server. The original song is hosted at www.xguitar.com. Chordie works as a search engine and provides on-the-fly formatting. Chordie does not index songs against artists'/composers' will. To remove this song please click here.

Text color:
Chord color:
Chord grids: 
Font size:    
Page size: 

A5 B5 C#7 D5 E E5 F#5 F#m
variations - click chord images

Login - add to songbook

Transpose chords

Tuning

Rating click stars to rate

Layout
Accuracy

SHARE PAGE  




You need to log in to post comments