Guitar Tabs, Chords and Lyrics


Up In The Sky  Oasis

e----------------------------------------


B----------------------------------------


G------0-----------0-----0---------------  (this repeats a bunch of times)


D---------------3---------------3--5-----


A---------3--5-------------3--5----------


E---3-----------------3---------------3--

   [Fadd9]           [Cadd6]                                                                   
e--3----3-----3----3-----
B--1-------1--1-------1--
G--2----------0----------  (then back to "main riff")
D--3----------2----------
A-------------3----------
E------------------------

Verse 1
-------

[NOTE: the above riffs are played by a 2nd guitar while the other guitar
plays the below chords]
[G]Hey you! Up in the sky, learning to fly, tell me how high
Do you [Fadd9]think you'll go[Cadd6],   before you start[G] fallin'
Hey [G]you! Up in the tree, you wanna be me, well that couldn't be
'cos the [Fadd9]people here[Cadd6],    they don't hear you [G]callin'
Chorus
------

[C]    How does it [A7/C#]feel
G (w/ main riff)
When you're inside me.
Verse 2
-------

[same cbords and riffs used as verse 1] 
Hey you! wearing the crown, making no sound, I heard you feel down
Well that's too bad, welcome to my world
Hey you! stealing the light, I heard that the shine's gone out of your
life
Well that's just too bad, welcome to my world
[C]    So how does it [A7/C#]feel
When you're in[G]side me?
Bridge
------

[D]  You'll need assistance with the things that you have [Em]never ev[D]er [C5]seen
[D]  It's just a case of never breathing out
Be[Em]fore you've breathed [D]it [C5]in
   [A7/C#]                So how does it [C]feel               when you're in[G]side me
e--0---0--0--0--0---0---0---0-----0---0--0--0--0--0--0--0------------------
B--2---2--0--2--3---2---0---2-----1---1--0--1--3--1--0--1------------------
G--0---0--0--0--0---0---0---0-----0---0--0--0--0--0--0--0----------main----
D--2---2--2--2--2---2---2---2-----2---2--2--2--2--2--2--2----------riff----
A--4---4--4--4--4---4---4---4-----3---3--3--3--3--3--3--3------------------
E--------------------------------------------------------------------------

[NOTE: the above tab is a combination of the chords played by guitar 1 and
the fill played by guitar 2. It sounds cool if you're only playing with
one guitar (that is, if you're not playing with somebody else) :) ]
[REPEAT VERSE 1] 
[CBORUS] 
[BRIDGE] 

Important: The song above is NOT stored on the Chordie server. The original song is hosted at www.xguitar.com. Chordie works as a search engine and provides on-the-fly formatting. Chordie does not index songs against artists'/composers' will. To remove this song please click here.

Text color:
Chord color:
Chord grids: 
Font size:    
Page size: 

A7/C# C C5 Cadd6 D Em Fadd9 G
variations - click chord images

Login - add to songbook

Transpose chords

Tuning

Rating click stars to rate

Layout
Accuracy

SHARE PAGE  




You need to log in to post comments