eToCache5 = ""; ?> Stop Crying Your Heart Out by Oasis - guitar chords, guitar tabs and lyrics - chordie

Stop Crying Your Heart Out

Oasis

 Bm224432
 Bm         x04232
E 022100
Em7 022030
G 320033
D xx0232
Here are two ways of playing this song.(Scroll down for the other)
FIRST:
Riff1:
E---------0--------------
B---8--7-----7-----------
G------------------------
D------------------------x4
A------------------------
E------------------------

Riff2:
E-----------0------------
B-------7------7---------
G---7--------------------
D------------------------x4
A------------------------
E------------------------

Intro
Bm...
Verse1:
 BmBmEG
 Hold on, Hold on, don't be scared, you'll never change what's been and gone
 BmBmEG
 May your smile, shine on, don't be scared, your destiny may keep you warm
Chorus:
 DAsus4Em7G
'Cos all of the stars, are fading away, just try not to worry, you'll see them someday
 DE7G
Take what you need, and be on your way, and stop crying your heart out (Riff 1)
Verse2:
 BmBmEG
 Get up, come on, why you scared, you'll never change what's been and gone
Chorus: (Same Chords)
'Cos all of the stars, are fading away, just try not to worry, you'll see them someday
Take what you need, and be on your way, and stop crying your heart out (Riff 2)
Solo:
E------0--------0---------
B----7--7-----7--7--------
G--7--------7-------------
D-------------------------x5
A-------------------------
E-------------------------

Orchestra Solo:
Then Riff 2.
Chorus:
While Liam is singing chorus Noel is playing this but slowley
E--------------------------------------------------
B----7--5-----------5------7--5--0-----7--5--------
G-7--------7-----7-----7-----------7---------------
D--------------7-----------------------------------
A--------------------------------------------------
E--------------------------------------------------

Outro:
E------14--12-14----14--12-----14-12-14-15-14-12-14-------
B---15-----------15---------15----------------------------
G---------------------------------------------------------
D---------------------------------------------------------x3
A---------------------------------------------------------
E---------------------------------------------------------
E------14--12-14----14--12--------------------------------
B---15-----------15---------12---15-----------------------
G---------------------------------------------------------
D---------------------------------------------------------
A---------------------------------------------------------
E---------------------------------------------------------

Then The Ending:
Play it slowly
Accompanied with a acoustic guitar strumming
E----14-12-----14-12-----14--12---------14--12--
B-15--------15--------15--------12---15---------
G-----------------------------------------------
D-----------------------------------------------
A-----------------------------------------------
E-----------------------------------------------
E----14-12-----14-12-----14--12---------14--12----------
B-15--------15--------15--------12---15---------12--15--
G-------------------------------------------------------
D-------------------------------------------------------
A-------------------------------------------------------
E-------------------------------------------------------
-------------------------------------------------------------------------------------

Intro: Piano
Open B
e:0-0-0-0----|
B:0-0-0-0----|
G:4-4-4-4----|
D:4-4-4-4----|
A:2-2-2-2----|
E:x-x-x-x----|

Verse: also piano chords
B A(or Asus4) E(or regular E) G
e: --0--  --0--        --0--            --0--
B: --0--  --5--        --0--            --3--
G: --4--  --6--        --9--            --4--
D: --4--  --7--        --9--            --5--
A: --2--  --7--        --7--            --5--
E: --x--  --5--        --0--            --3--

between the verse and the chorus after the last G these is a short piano part where he sweeches to A and then to G again
Chorus:
piano playing:
 DAGA
e:-------------|
B:-------------|
G:-7-----9-----|
D:-7--7--9--5--|
A:-5--7--7--5--|
E:----5--0--3--|

Acoustic guitar playing:
 DAsus3Em7G
e:  --2--  --0--  --0--  --3--
B:  --3--  --3--  --3--  --3--
G:  --2--  --2--  --0--  --0--       Bass playes after The Em7  E--2--3---
D:  --0--  --2--  --2--  --0--
A:  -----  --0--  --2--  --2--
E:  -----  ----   --0--  --3--
e:  --0--  --0--  --3--
B:  --3--  --3--  --3--
G:  --2--  --2--  --0--
D:  --0--  --2--  --0--
A:  -----  --0--  --2--
E:  -----  ----   --3--  

Bridge:
e:---2-0-2-----2-0-2------2-0-2----2-0-2-----2-0-2----2-0-2------2-0-2----2-0-2-----|
B:-3--------3-----------------------------------------------------------------------|
G:---------------------2--------2------------------------------0-------0------------|
D:-0--------0-----------------------------2--------2--------------------------------|
A:---------------------0--------0---------------------------------------------------|
E:----------------------------------------0--------0-----------3-------3------------|

meanwhile the acoustic plays same chords as in the chorus
The Harmonic part:
~ ~ ~ ~ ~ ~ ~ ~ ~ ~ ~ ~ ~ ~ ~ ~ ~ ~ ~ ~ ~ ~ ~ ~ ~ ~ ~ ~ ~ ~ ~ ~
e:----------------------------------------------------------------------------------|
B:---7--5--7----7-5-7---7-5-7---7-5-7---7-5-7----7-5-7----7-5-7---7-5-7-------------|
G:-7----------7---------------------------------------------------------------------|
D:--------------------7-------7-------------------------5-------5-----------------|
A:------------------------------------7-------7-------------------------------------|
E:----------------------------------------------------------------------------------|

end:
e:  --0--  --0--  --0--  --3--
B:  --3--  --3--  --3--  --3--
G:  --2--  --2--  --0--  --0--
D:  --0--  --2--  --2--  --0--    continue with Em7 G/F# and G.
A:  -----  --0--  --2--  --2--    (only the bass does the F# but is sounds good also on acoustic only)
E:  -----  ----   --0--  --3--
e:  --0--  --0--  --0--
B:  --3--  --3--  --3--
G:  --0--  --0--  --0--  until the end of the chorus
D:  --2--  --0--  --0--
A:  --2--  --x--  --2--
E:  --0--  --2-   --3--
--------------------------------------------------|
---7-5-7----7-5-7----7-5-7---7-5-7----------------|
--------------------------------------------------|   until the outro
-------------------5-------5----------------------|
-7-------7----------------------------------------|
--------------------------------------------------|

Outro: Harmoinics
~ ~ ~ ~ ~ ~ ~ ~ ~ ~ ~ ~ ~ ~ ~
E----14-12-----14-12-----14--12---------14--12--
B-15--------15--------15--------12---15---------
G-----------------------------------------------
D-----------------------------------------------
A-----------------------------------------------
E-----------------------------------------------
E----14-12-----14-12-----14--12---------14--12----------
B-15--------15--------15--------12---15---------12--15--
G-------------------------------------------------------
D-------------------------------------------------------
A-------------------------------------------------------
E-------------------------------------------------------

Hold upShold onSdon? be scared
You?l never change what? been and gone
May your smileU Shine onU Don? be scared
Your destiny may keep you warm.
Cos all of the stars are fading away
Just try not to worry you?l see them some day
Take what you need and be on your way
And stop crying your heart out
Get upU Come onSwhy you scared
You?l never change what been and gone
Cos all of the stars are fading away
Just try not to worry you?l see them some day
Take what you need and be on your way
And stop crying your heart out
Bridge: Ahhhhhhhhhh
Cos all of the stars are fading away
Just try not to worry you?l see them some day
Take what you need and be on your way
And stop crying your heart out
where all of the stars were fading away
Just try not to worry you?l see them some day
Take what you need and be on your way
And stop crying your heart out
stop crying your heart out
stop crying your heart out
stop crying your heart out
Harmonics


A Asus4 Bm D E E7 Em7 G
variations - click chord images
Transpose chords:
Tuning:
Cool service:
View: Size:
A  A  A
Rating:
Layout:
  • Currently 3.2/5 Stars.
  • 1
  • 2
  • 3
  • 4
  • 5
 
Accuracy:
  • Currently 2.5/5 Stars.
  • 1
  • 2
  • 3
  • 4
  • 5
 
click stars to rate
Chordie recommends:
Learn to play guitar with video-based, online guitar lessons at JamPlay.com
Songbook:
Login to add this song to your songbook
Support the artist
Preview/buy this song
MSN Music
Why this non-profit ad?

 
login to add comments/video/corrections