Guitar Tabs, Chords and Lyrics


The Hindu Times   Oasis



The Hindu Times
By: Oasis
Transcribed By Alex Montenegro
Leech60@hotmail.com
Intro riff 
e||----------------------------------------------| 
B||----------------------------------------------| 
G||---8-9--8vvv----------8-9(9)b(9)-8------------| 
D||---------------9vv----------------------------| 
A||----------------------------------------------| 
E||----------------------------------------------| 

e||----------------------------------------------| 
B||----------------------------------------------| 
G||---8-9--8vvv----------------------------------| 
D||---------------9--7-7-7-7 (7)h9---------------| 
A||----------------------------------------------| 
E||----------------------------------------------| 

Riff after each "cos god gave me a soul in your rock n roll, babe" 
e||----------------------------------------------| 
B||----------------------------------------------| 
G||---8-9--8vvv-------------8-9(9)b(9)-8---------| 
D||----------------9-9vv--9----------------------| 
A||----------------------------------------------| 
E||----------------------------------------------| 
Small riff right when Liam sings "...in your rock n roll..." 
e||--------------------| 
B||-------10-10--------| 
G||---9//11------------| 
D||--------------------| 
A||--------------------| 
E||--------------------| 
Riff after each "and i get so high i just can't feel it" 
e||----------------------------------------------| 
B||----------------------------------------------| 
G||---8-9--8vvv--------------8-9--8vvv-----------| 
D||----------------9-9vv--9----------------------| 
A||----------------------------------------------| 
E||----------------------------------------------| 

Verse 2: 

B 
There's a light, that shines on 
E 
Shines on me, and it keeps me warm 
B 
It gives me peace, I must say 
E 
I can't sleep, cos the world won't wait 
The Pre-chorus goes : Cos God gave me a soul in your rock n roll, babe" 
instead of what you had said (we got rock n roll) 
The solo goes like this: 

e||---------------------------------------------| 
B||---------------------------------------------| 
G||---13-14-13vv------------13-14(14)b(14)14----| 
D||--------------14-14--(14)--------------------| 
A||---------------------------------------------| 
E||---------------------------------------------| 

e||---------------------------------------------| 
B||---------------------------------------------| 
G||---------------------------------------------| 
D||---13-14-13vv------------13-14(14)b(14)14----| 
A||--------------14-14--(14)--------------------| 
E||---------------------------------------------| All this x2


Important: The song above is NOT stored on the Chordie server. The original song is hosted at www.xguitar.com. Chordie works as a search engine and provides on-the-fly formatting. Chordie does not index songs against artists'/composers' will. To remove this song please click here.

This song is displayed as text-only. Transposing and tuning is only available for chordpro-songs.

Login - add to songbook

Rating click stars to rate

Layout
Accuracy

SHARE PAGE  




You need to log in to post comments