Guitar Tabs, Chords and Lyrics


Sunday Morning Call  Oasis

[Bb]    [Dm]    [D]   [G]   [Em]    [C]   [F]                                                              
----1---2--3--0---0--1--
3---3---3--3--0---1--1--
3---2---2--0--0---0--2--
3---0---0--0--2---2--3--
1----------X--2---3--3--
-----------3--0------1--

Phrase 1
--------------------------------------------------------------
----3-------3--------3--------3----------3-------3------------
--2---2-------0--------0--------0------2---2-------0----------
0---------0--------0--------0--------0---------0--------------
--------3--------2--------3------------------3--------2-------
--------------------------------------------------------------

VERSE 1
Bb DmHere's another sunday morning call
[Bb]You hear yer head a bangin' on the [Dm]door
[Bb]Slip your shoes on and then [Dm]out you crawl
Into a [Bb]day that couldn't give you [Dm]more
But what [D]for?
CHORUS
And in your [G]head do you [D]feel
What you're [Em]not supposed to [C]feel
And you [G]take what you [D]want
But you [F]don't get it for [Em]free[D]
You [G]need more [D]time
'Coz your [Em]thoughts and words won't [C]last forever [G]more
But I'm not [D]sure if it'll [Em]ever work out [C]right
(Phrase 1)
But it's ok
It's alright
VERSE 2
[Bb]When your lonely and you [Dm]start to hear
The little [Bb]voices in your head at [Dm]night
[Bb]You will only snip a[Dm]way the tears
So you can [Bb]dance until the morning [Dm]light
At what [D]price?
(REPEAT CHORUS)
SOLO
              [G]     [F]           [G]      [Bb] [C] [Bb] [C]                                                                                  
---------------------------------------------------------------------------------
------6---------------------------------------6-------------------6--------------
5-(7)---5-(7)-3------------3---3-(4)------5/7----5-(7)-5------5/7----5-(7)-5-----
----------------5------3-5---5-------5-------------------------------------------
-------------------3-5-----------------------------------------------------------
---------------------------------------------------------------------------------

(x2 then)
[D]OUTR[D]O CH[C]OR[D]US
And in your [G]head do you [D]feel
What you're [Em]not supposed to [C]feel?
And you [G]take what you [D]want
But you [F]won't get hope for [Em]free[D]
You [G]need more [D]time
'Coz yer [Em]thoughts and words won't [C]last forever [G]more
And I'm not [D]sure
If it'll [F]ever ever [C]ever work out [G]right[D]
If it'll [F]ever ever [C]ever work out [G]right[D]
Will it [F]ever ever [C]ever work out [G]right

Important: The song above is NOT stored on the Chordie server. The original song is hosted at www.xguitar.com. Chordie works as a search engine and provides on-the-fly formatting. Chordie does not index songs against artists'/composers' will. To remove this song please click here.

Text color:
Chord color:
Chord grids: 
Font size:    
Page size: 

Bb C D Dm Em F G
variations - click chord images

Login - add to songbook

Transpose chords

Tuning

Rating click stars to rate

Layout
Accuracy

SHARE PAGE  




You need to log in to post comments