Chordie logo


Bullituary (Remix)    Obituary



OBITUARY - BULLITUARY (REMIX)
                         From the Album - BACK FROM THE DEAD
                         Copyright - ROADRUNNER RECORDS 1997
                              Version 1.0 - Oct 28, 2002


Transcribed By: James Williams (Inverted)

For Questions, Comments, Newest Version, or Corrections contact
Inverted: at Inverted_one@hotmail.com

Check Out Death8699.com Metaltabs.com or dsrmusic.com for More
Transcriptions:http://www.Death8699.com http://www.Metaltabs.com
http://www.dsrmusic.com/metaltab

.  - palm mute           /  - slide up to
\  - slide down to       ~  - vibrato
h  - hammer on           b  - Bend
p  - pull off            Suffixes for bend
t  - tap                 f  - full bend    h - half bend
ph - pinched harmonic    q  - quarter bend t - tap bend
nh - natural harmonic    ^  - Hold bend    r release bend
*  - see comment         ~  - vibrato bend
x  - Stuccatto           () - ghost note, sustained note
,  - slight palm mute     - Trill
"  - tremolo note

Tuning: "D"G"C"F"A"D"


Riff 1
|----------------------------------------------------------|
|----------------------------------------------------------|
|----------------------------------------------------------|
|-------------------3--------------------------------------|
|-2------2----------1----3----2------2----------5----3-----|
|-0--0-0-0--0-0-0-0----0-1--0-0--0-0-0--0-0-0-0-3--0-1--0--|
     . .    . . . .    .    .    . .    . . . .    .    .

Riff 2
|----------------------------------------------|
|----------------------------------------------|
|----------------------------------------------|
|------6----3----------------------------------|
|-5----4----1--3--2------2----------2----2-----|
|-3----4----1--1--0--0-0-0--0-0-0-0-0--0-0--0--|
                     . .    . . . .    .    .

End
|---------------------|
|---------------------|
|---------------------|
|------6----3---------|
|-5----4----1--3--2x--|
|-3----4----1--1--0x--|


Check out my other tabs by: Deicide, Obituary, Hypocrisy,
Grave, Catastrophic, Six Feet Under, Incantation, Death and


Important: The song above is NOT stored on the Chordie server. The original song is hosted at www.xguitar.com. Chordie works as a search engine and provides on-the-fly formatting. Chordie does not index songs against artists/composers will. To remove this song please click here.

This song is displayed as text-only. Transposing and tuning is only available for chordpro-songs.

Login - add to songbook

Rating click stars to rate

Layout
Accuracy

SHARE PAGE  




You need to log in to post comments