Chordie logo

Pressure Point    Obituary



OBITUARY - PRESSURE POINT
                         From the Album - BACK FROM THE DEAD
                         Copyright - ROADRUNNER RECORDS 1997
                              Version 1.0 - Aug 13, 2001
                                Revised - Oct 26, 2002

Transcribed by: James Williams (Inverted)

For Questions, Comments, Newest Version, or Corrections contact
Inverted: at Inverted_one@hotmail.com

Check Out Death8699.com Metaltabs.com or dsrmusic.com for More
Transcriptions:http://www.Death8699.com http://www.Metaltabs.com
http://www.dsrmusic.com/metaltab

.  - palm mute           /  - slide up to
\  - slide down to       ~  - vibrato
h  - hammer on           b  - Bend
p  - pull off            Suffixes for bend
t  - tap                 f  - full bend    h - half bend
ph - pinched harmonic    q  - quarter bend t - tap bend
nh - natural harmonic    ^  - Hold bend    r release bend
*  - see comment         ~  - vibrato bend
x  - Stuccatto           () - ghost note, sustained note
,  - slight palm mute     - Trill
"  - tremolo note

Tuning: "D"G"C"F"A"D"


Intro
|------------------|
|------------------|
|------------------|
|------------------|
|-------5-------4--|
|--0000-3--0000-2--|
   ....    ....

Riff 1-A
|----------------------------------------|
|----------------------------------------|
|----------------------------------------|
|-------------------------5\6------------|
|----6\7----5\6----3\5----3\4--6\7--5\6--|
|--0-4\5--0-3\4--0-1\3--0------4\5--3\4--|
   .      .      .      .

Riff 2
|------------------------------------|
|------------------------------------|
|------------------------------------|
|------------------------------------|
|-------5-------4------230032002300--|
|--0000-3--0000-2--0000--------------|
   ....    ....    ................

Riff 3
|------------------------------------------------------------|
|------------------------------------------------------------|
|------------------------------------------------------------|
|--5--------4----3------7------5--------4---------5-------4--|
|--3--------2----1------5------3--------2---------5-------4--|
|--3--------2----1------5------3--------2----0000-3--0000-2--|
                                             ....    ....

Riff 1-B
|----------------------------------------|
|----------------------------------------|
|----------------------------------------|
|-------------------------5\6------------|
|----6-7----5-6----3-5----3\4--6-7--5-6--|
|--0-4-5--0-3-4--0-1-3--0------4-5--3-4--|
   . . .  . . .  . . .  .      . .  . .

End
|-------------------|

|-------------------|
|-------------------|
|-------------------|
|-------5-------4x--|
|--0000-3--0000-2x--|
   ....    ....


Check out my other tabs by: Deicide, Obituary, Hypocrisy,
Grave, Catastrophic, Six Feet Under, Incantation, Death and


Important: The song above is NOT stored on the Chordie server. The original song is hosted at www.xguitar.com. Chordie works as a search engine and provides on-the-fly formatting. Chordie does not index songs against artists/composers will. To remove this song please click here.

This song is displayed as text-only. Transposing and tuning is only available for chordpro-songs.

Login - add to songbook

Rating click stars to rate

Layout
Accuracy

SHARE PAGE  



You need to log in to post comments