Chordie logo

Burned In    Obituary



OBITUARY - BURNED IN
                         From the Album - WORLD DEMISE
                       Copyright: ROADRUNNER RECORDS 1994
                          Version 2.0 - DECEMBER 2001
                           Revision - September 2002

Transcribed by: James Williams (Inverted)

For Questions, Comments, Newest Version, or Corrections contact
Inverted: at Inverted_one@hotmail.com

Check Out Death8699.com Metaltabs.com or dsrmusic.com for More
Transcriptions:http://www.Death8699.com http://www.Metaltabs.com
http://www.dsrmusic.com/metaltab

.  - palm mute           /  - slide up to
\  - slide down to       ~  - vibrato
h  - hammer on           b  - Bend
p  - pull off            Suffixes for bend
t  - tap                 f  - full bend    h - half bend
ph - pinched harmonic    q  - quarter bend t - tap bend
*  - see comment         ^  - Hold bend    r release bend
x  - Stuccatto           ~  - vibrato bend
,  - slight palm mute    () - ghost note, sustained note
"  - tremolo note         - Trill

Tuning: "D"G"C"F"A"D"


Riff 1                                  Gtr I
|---------------------------------------------|
|---------------------------------------------|
|-----------9--10--9-------------9--10--9-----|
|--------9--------------------9------------9--|
|-----7--------------------7------------------|
|--0--------------------0---------------------|
|                                             |
|                                      Gtr II |
|---------------------------------------------|
|---------------------------------------------|
|---------------------------------------------|
|---------------------------------------------|
|--7--------------------7---------------------|
|--0--------------------0---------------------|


Fill 1
|-------------------------------------------------------------------|
|-------------------------------------------------------------------|
|-------------------------------------------------------------------|
|----------------------------------9-9-9-9-9-9-9-9-9-9-9-9-9-9-9-9--|
|--7-7-7-7-7-7-7-7-7-7-7-7-7-7-7-7-7-7-7-7-7-7-7-7-7-7-7-7-7-7-7-7--|
|--0-0-0-0-0-0-0-0-0-0-0-0-0-0-0-0-0-0-0-0-0-0-0-0-0-0-0-0-0-0-0-0--|
   . . . . . . . . . . . . . . . . . . . . . . . . . . . . . . . .

Riff 2-A
|--------------------------------------------------|
|--------------------------------------------------|
|--------------------------------------------------|
|--6---5-----------3\4-3---6---5-----------3x------|
|--4---3-----------1\2-1---4---3-----------3x------|
|--4---3---0-0-0-0---------4---3---0-0-0-0-1x------|
           . . . .                 . . . .

Riff 2-B
|--------------------------------------------------|
|--------------------------------------------------|
|--------------------------------------------------|
|--6---5-----------3\4-3---6---5-----------3-------|
|--4---3-----------1\2-1---4---3-----------3-------|
|--4---3---0-0-0-0---------4---3---0-0-0-0-1--0-0--|
           . . . .                 . . . .    . .

Riff 3-A
|------------------------------------------|
|------------------------------------------|
|------------------------------------------|
|--4------8------7----------3------5-------|
|--4------8------7----------3------5-------|
|--2------6------5------0-0-1--0-0-3--0-0--|
                        . .    . .    . .


Riff 3-B (Solo Riff)
|------------------------------------------|
|------------------------------------------|
|------------------------------------------|
|--4------8------7----------6------5-------|
|--2------6------5----------4------3-------|
|--2------6------5------0-0-4--0-0-3--0-0--|
                        . .    . .    . .

Riff 4
|-----------------------------------------------------------|
|-----------------------------------------------------------|
|-----------------------------------------------------------|
|----------3--------------------------3-----------5---------|
|----------1-----------3---5----------1-----------3----3\5--|
|--0-0-0-0------0-0-0--1-0-3--0-0-0-0------0-0-0-----0-1\3--|


Important: The song above is NOT stored on the Chordie server. The original song is hosted at www.xguitar.com. Chordie works as a search engine and provides on-the-fly formatting. Chordie does not index songs against artists/composers will. To remove this song please click here.

This song is displayed as text-only. Transposing and tuning is only available for chordpro-songs.

Login - add to songbook

Rating click stars to rate

Layout
Accuracy

SHARE PAGE  



You need to log in to post comments